  0
SECTION
  2
HEADER
  9
$ACADVER
  1
AC1015
  9
$ACADMAINTVER
 70
     6
  9
$DWGCODEPAGE
  3
ANSI_1254
  9
$INSBASE
 10
0.0
 20
0.0
 30
0.0
  9
$EXTMIN
 10
0.0
 20
0.0
 30
0.0
  9
$EXTMAX
 10
279.4
 20
215.9
 30
0.0
  9
$LIMMIN
 10
0.0
 20
0.0
  9
$LIMMAX
 10
279.4
 20
215.9
  9
$ORTHOMODE
 70
     0
  9
$REGENMODE
 70
     1
  9
$FILLMODE
 70
     1
  9
$QTEXTMODE
 70
     0
  9
$MIRRTEXT
 70
     1
  9
$LTSCALE
 40
1.0
  9
$ATTMODE
 70
     1
  9
$TEXTSIZE
 40
3.5
  9
$TRACEWID
 40
1.0
  9
$TEXTSTYLE
  7
Standard
  9
$CLAYER
  8
0
  9
$CELTYPE
  6
ByLayer
  9
$CECOLOR
 62
   256
  9
$CELTSCALE
 40
1.0
  9
$DISPSILH
 70
     0
  9
$DIMSCALE
 40
1.0
  9
$DIMASZ
 40
3.5
  9
$DIMEXO
 40
1.0
  9
$DIMDLI
 40
3.75
  9
$DIMRND
 40
0.0
  9
$DIMDLE
 40
0.0
  9
$DIMEXE
 40
1.0
  9
$DIMTP
 40
0.0
  9
$DIMTM
 40
0.0
  9
$DIMTXT
 40
3.5
  9
$DIMCEN
 40
2.5
  9
$DIMTSZ
 40
0.0
  9
$DIMTOL
 70
     0
  9
$DIMLIM
 70
     0
  9
$DIMTIH
 70
     1
  9
$DIMTOH
 70
     1
  9
$DIMSE1
 70
     0
  9
$DIMSE2
 70
     0
  9
$DIMTAD
 70
     1
  9
$DIMZIN
 70
     0
  9
$DIMBLK
  1

  9
$DIMASO
 70
     1
  9
$DIMSHO
 70
     1
  9
$DIMPOST
  1

  9
$DIMAPOST
  1

  9
$DIMALT
 70
     0
  9
$DIMALTD
 70
     3
  9
$DIMALTF
 40
0.0393700787
  9
$DIMLFAC
 40
1.0
  9
$DIMTOFL
 70
     1
  9
$DIMTVP
 40
0.0
  9
$DIMTIX
 70
     0
  9
$DIMSOXD
 70
     0
  9
$DIMSAH
 70
     0
  9
$DIMBLK1
  1

  9
$DIMBLK2
  1

  9
$DIMSTYLE
  2
ISO-25
  9
$DIMCLRD
 70
     0
  9
$DIMCLRE
 70
     0
  9
$DIMCLRT
 70
     0
  9
$DIMTFAC
 40
1.0
  9
$DIMGAP
 40
1.524
  9
$DIMJUST
 70
     0
  9
$DIMSD1
 70
     0
  9
$DIMSD2
 70
     0
  9
$DIMTOLJ
 70
     0
  9
$DIMTZIN
 70
     0
  9
$DIMALTZ
 70
     0
  9
$DIMALTTZ
 70
     0
  9
$DIMUPT
 70
     0
  9
$DIMDEC
 70
     2
  9
$DIMTDEC
 70
     2
  9
$DIMALTU
 70
     2
  9
$DIMALTTD
 70
     3
  9
$DIMTXSTY
  7
Standard
  9
$DIMAUNIT
 70
     0
  9
$DIMADEC
 70
     2
  9
$DIMALTRND
 40
0.0
  9
$DIMAZIN
 70
     0
  9
$DIMDSEP
 70
    44
  9
$DIMATFIT
 70
     3
  9
$DIMFRAC
 70
     0
  9
$DIMLDRBLK
  1

  9
$DIMLUNIT
 70
     2
  9
$DIMLWD
 70
    -2
  9
$DIMLWE
 70
    -2
  9
$DIMTMOVE
 70
     0
  9
$LUNITS
 70
     2
  9
$LUPREC
 70
     2
  9
$SKETCHINC
 40
1.0
  9
$FILLETRAD
 40
10.0
  9
$AUNITS
 70
     0
  9
$AUPREC
 70
     2
  9
$MENU
  1
.
  9
$ELEVATION
 40
0.0
  9
$PELEVATION
 40
0.0
  9
$THICKNESS
 40
0.0
  9
$LIMCHECK
 70
     0
  9
$CHAMFERA
 40
0.0
  9
$CHAMFERB
 40
0.0
  9
$CHAMFERC
 40
0.0
  9
$CHAMFERD
 40
0.0
  9
$SKPOLY
 70
     0
  9
$TDCREATE
 40
2459935.709760579
  9
$TDUCREATE
 40
2459935.584760579
  9
$TDUPDATE
 40
2459935.709760764
  9
$TDUUPDATE
 40
2459935.584760764
  9
$TDINDWG
 40
0.0000000116
  9
$TDUSRTIMER
 40
0.0000000116
  9
$USRTIMER
 70
     1
  9
$ANGBASE
 50
0.0
  9
$ANGDIR
 70
     0
  9
$PDMODE
 70
     0
  9
$PDSIZE
 40
-1.0
  9
$PLINEWID
 40
0.0
  9
$SPLFRAME
 70
     0
  9
$SPLINETYPE
 70
     6
  9
$SPLINESEGS
 70
     8
  9
$HANDSEED
  5
F5
  9
$SURFTAB1
 70
     6
  9
$SURFTAB2
 70
     6
  9
$SURFTYPE
 70
     6
  9
$SURFU
 70
     6
  9
$SURFV
 70
     6
  9
$UCSBASE
  2

  9
$UCSNAME
  2

  9
$UCSORG
 10
0.0
 20
0.0
 30
0.0
  9
$UCSXDIR
 10
1.0
 20
0.0
 30
0.0
  9
$UCSYDIR
 10
0.0
 20
1.0
 30
0.0
  9
$UCSORTHOREF
  2

  9
$UCSORTHOVIEW
 70
     0
  9
$UCSORGTOP
 10
0.0
 20
0.0
 30
0.0
  9
$UCSORGBOTTOM
 10
0.0
 20
0.0
 30
0.0
  9
$UCSORGLEFT
 10
0.0
 20
0.0
 30
0.0
  9
$UCSORGRIGHT
 10
0.0
 20
0.0
 30
0.0
  9
$UCSORGFRONT
 10
0.0
 20
0.0
 30
0.0
  9
$UCSORGBACK
 10
0.0
 20
0.0
 30
0.0
  9
$PUCSBASE
  2

  9
$PUCSNAME
  2

  9
$PUCSORG
 10
0.0
 20
0.0
 30
0.0
  9
$PUCSXDIR
 10
1.0
 20
0.0
 30
0.0
  9
$PUCSYDIR
 10
0.0
 20
1.0
 30
0.0
  9
$PUCSORTHOREF
  2

  9
$PUCSORTHOVIEW
 70
     0
  9
$PUCSORGTOP
 10
0.0
 20
0.0
 30
0.0
  9
$PUCSORGBOTTOM
 10
0.0
 20
0.0
 30
0.0
  9
$PUCSORGLEFT
 10
0.0
 20
0.0
 30
0.0
  9
$PUCSORGRIGHT
 10
0.0
 20
0.0
 30
0.0
  9
$PUCSORGFRONT
 10
0.0
 20
0.0
 30
0.0
  9
$PUCSORGBACK
 10
0.0
 20
0.0
 30
0.0
  9
$USERI1
 70
     0
  9
$USERI2
 70
     0
  9
$USERI3
 70
     0
  9
$USERI4
 70
     0
  9
$USERI5
 70
     0
  9
$USERR1
 40
0.0
  9
$USERR2
 40
0.0
  9
$USERR3
 40
0.0
  9
$USERR4
 40
0.0
  9
$USERR5
 40
0.0
  9
$WORLDVIEW
 70
     1
  9
$SHADEDGE
 70
     3
  9
$SHADEDIF
 70
    70
  9
$TILEMODE
 70
     1
  9
$MAXACTVP
 70
    64
  9
$PINSBASE
 10
0.0
 20
0.0
 30
0.0
  9
$PLIMCHECK
 70
     0
  9
$PEXTMIN
 10
1.0000000000E+20
 20
1.0000000000E+20
 30
1.0000000000E+20
  9
$PEXTMAX
 10
-1.0000000000E+20
 20
-1.0000000000E+20
 30
-1.0000000000E+20
  9
$PLIMMIN
 10
0.0
 20
0.0
  9
$PLIMMAX
 10
420.0
 20
297.0
  9
$UNITMODE
 70
     0
  9
$VISRETAIN
 70
     1
  9
$PLINEGEN
 70
     0
  9
$PSLTSCALE
 70
     1
  9
$TREEDEPTH
 70
  3020
  9
$CMLSTYLE
  2
Standard
  9
$CMLJUST
 70
     0
  9
$CMLSCALE
 40
20.0
  9
$PROXYGRAPHICS
 70
     1
  9
$MEASUREMENT
 70
     1
  9
$CELWEIGHT
370
    -1
  9
$ENDCAPS
280
     0
  9
$JOINSTYLE
280
     0
  9
$LWDISPLAY
290
     1
  9
$INSUNITS
 70
     4
  9
$HYPERLINKBASE
  1

  9
$STYLESHEET
  1

  9
$XEDIT
290
     1
  9
$CEPSNTYPE
380
     0
  9
$PSTYLEMODE
290
     1
  9
$FINGERPRINTGUID
  2
{810a8732-3703-40e6-8108-2e71d78a4906}
  9
$VERSIONGUID
  2
{FAEB1C32-E019-11D5-929B-00C0DF256EC4}
  9
$EXTNAMES
290
     1
  9
$PSVPSCALE
 40
0.0
  9
$OLESTARTUP
290
     0
  0
ENDSEC
  0
SECTION
  2
CLASSES
  0
CLASS
  1
ACDBDICTIONARYWDFLT
  2
AcDbDictionaryWithDefault
  3
ObjectDBX Classes
 90
        0
280
     0
281
     0
  0
CLASS
  1
VISUALSTYLE
  2
AcDbVisualStyle
  3
ObjectDBX Classes
 90
     4095
280
     0
281
     0
  0
CLASS
  1
MATERIAL
  2
AcDbMaterial
  3
ObjectDBX Classes
 90
     1153
280
     0
281
     0
  0
CLASS
  1
SCALE
  2
AcDbScale
  3
ObjectDBX Classes
 90
     1153
280
     0
281
     0
  0
CLASS
  1
TABLESTYLE
  2
AcDbTableStyle
  3
ObjectDBX Classes
 90
     4095
280
     0
281
     0
  0
CLASS
  1
MLEADERSTYLE
  2
AcDbMLeaderStyle
  3
ACDB_MLEADERSTYLE_CLASS
 90
     4095
280
     0
281
     0
  0
CLASS
  1
SUN
  2
AcDbSun
  3
SCENEOE
 90
     1153
280
     0
281
     0
  0
CLASS
  1
ACDBPLACEHOLDER
  2
AcDbPlaceHolder
  3
ObjectDBX Classes
 90
        0
280
     0
281
     0
  0
CLASS
  1
LAYOUT
  2
AcDbLayout
  3
ObjectDBX Classes
 90
        0
280
     0
281
     0
  0
ENDSEC
  0
SECTION
  2
TABLES
  0
TABLE
  2
VPORT
  5
8
330
0
100
AcDbSymbolTable
 70
     1
  0
VPORT
  5
29
330
8
100
AcDbSymbolTableRecord
100
AcDbViewportTableRecord
  2
*Active
 70
     0
 10
0.0
 20
0.0
 11
1.0
 21
1.0
 12
139.7
 22
107.95
 13
0.0
 23
0.0
 14
10.0
 24
10.0
 15
10.0
 25
10.0
 16
0.0
 26
0.0
 36
1.0
 17
0.0
 27
0.0
 37
0.0
 40
215.9
 41
1.2941176471
 42
50.0
 43
0.0
 44
0.0
 50
0.0
 51
0.0
 71
     0
 72
  2000
 73
     1
 74
     3
 75
     0
 76
     0
 77
     0
 78
     0
281
     0
 65
     1
110
0.0
120
0.0
130
0.0
111
1.0
121
0.0
131
0.0
112
0.0
122
1.0
132
0.0
 79
     0
146
0.0
  0
ENDTAB
  0
TABLE
  2
LTYPE
  5
5
330
0
100
AcDbSymbolTable
 70
     6
  0
LTYPE
  5
14
330
5
100
AcDbSymbolTableRecord
100
AcDbLinetypeTableRecord
  2
ByBlock
 70
     0
  3

 72
    65
 73
     0
 40
0.0
  0
LTYPE
  5
15
330
5
100
AcDbSymbolTableRecord
100
AcDbLinetypeTableRecord
  2
ByLayer
 70
     0
  3

 72
    65
 73
     0
 40
0.0
  0
LTYPE
  5
16
330
5
100
AcDbSymbolTableRecord
100
AcDbLinetypeTableRecord
  2
Continuous
 70
     0
  3
Solid line
 72
    65
 73
     0
 40
0.0
  0
LTYPE
  5
6E
330
5
100
AcDbSymbolTableRecord
100
AcDbLinetypeTableRecord
  2
HIDDEN
 70
     0
  3
Hidden __ __ __ __ __ __ __ __ __ __ __ __ __ __
 72
    65
 73
     2
 40
1.905
 49
1.27
 74
     0
 49
-0.635
 74
     0
  0
LTYPE
  5
6F
330
5
100
AcDbSymbolTableRecord
100
AcDbLinetypeTableRecord
  2
PHANTOM
 70
     0
  3
Phantom ______  __  __  ______  __  __  ______
 72
    65
 73
     6
 40
12.7
 49
6.35
 74
     0
 49
-1.27
 74
     0
 49
1.27
 74
     0
 49
-1.27
 74
     0
 49
1.27
 74
     0
 49
-1.27
 74
     0
  0
LTYPE
  5
70
330
5
100
AcDbSymbolTableRecord
100
AcDbLinetypeTableRecord
  2
CENTER
 70
     0
  3
Center ____ _ ____ _ ____ _ ____ _ ____ _ ____
 72
    65
 73
     4
 40
10.16
 49
6.35
 74
     0
 49
-1.27
 74
     0
 49
1.27
 74
     0
 49
-1.27
 74
     0
  0
LTYPE
  5
71
330
5
100
AcDbSymbolTableRecord
100
AcDbLinetypeTableRecord
  2
CENTERX2
 70
     0
  3
Center (2x) ________  __  ________  __  _____
 72
    65
 73
     4
 40
20.32
 49
12.7
 74
     0
 49
-2.54
 74
     0
 49
2.54
 74
     0
 49
-2.54
 74
     0
  0
LTYPE
  5
72
330
5
100
AcDbSymbolTableRecord
100
AcDbLinetypeTableRecord
  2
DOT2
 70
     0
  3
Dot (.5x) ........................................
 72
    65
 73
     2
 40
0.635
 49
0.0
 74
     0
 49
-0.635
 74
     0
  0
ENDTAB
  0
TABLE
  2
LAYER
  5
2
330
0
100
AcDbSymbolTable
 70
    17
  0
LAYER
  5
10
330
2
100
AcDbSymbolTableRecord
100
AcDbLayerTableRecord
  2
0
 70
     0
 62
     7
  6
Continuous
370
    -3
390
F
  0
LAYER
  5
73
330
2
100
AcDbSymbolTableRecord
100
AcDbLayerTableRecord
  2
FORMAT
 70
     0
 62
     7
  6
Continuous
370
    -3
390
F
  0
LAYER
  5
74
330
2
100
AcDbSymbolTableRecord
100
AcDbLayerTableRecord
  2
YARDIMCI_GEOMETRI
 70
     0
 62
    -6
  6
Continuous
290
     0
370
    -3
390
F
  0
LAYER
  5
75
330
2
100
AcDbSymbolTableRecord
100
AcDbLayerTableRecord
  2
SAYFA_CERCEVESI
 70
     0
 62
     7
  6
Continuous
370
    25
390
F
  0
LAYER
  5
76
330
2
100
AcDbSymbolTableRecord
100
AcDbLayerTableRecord
  2
ANTET
 70
     0
 62
     7
  6
Continuous
370
    -3
390
F
  0
LAYER
  5
77
330
2
100
AcDbSymbolTableRecord
100
AcDbLayerTableRecord
  2
OLCU
 70
     0
 62
   150
  6
Continuous
370
    -3
390
F
  0
LAYER
  5
78
330
2
100
AcDbSymbolTableRecord
100
AcDbLayerTableRecord
  2
METIN
 70
     0
 62
    96
  6
Continuous
370
    -3
390
F
  0
LAYER
  5
79
330
2
100
AcDbSymbolTableRecord
100
AcDbLayerTableRecord
  2
BALON
 70
     0
 62
     5
  6
Continuous
370
    -3
390
F
  0
LAYER
  5
7A
330
2
100
AcDbSymbolTableRecord
100
AcDbLayerTableRecord
  2
VURGU
 70
     0
 62
     7
  6
Continuous
370
    -3
390
F
  0
LAYER
  5
7B
330
2
100
AcDbSymbolTableRecord
100
AcDbLayerTableRecord
  2
SILIK
 70
     0
 62
     7
  6
Continuous
370
    -3
390
F
  0
LAYER
  5
7C
330
2
100
AcDbSymbolTableRecord
100
AcDbLayerTableRecord
  2
MODEL
 70
     0
 62
     7
  6
Continuous
370
    -3
390
F
  0
LAYER
  5
7D
330
2
100
AcDbSymbolTableRecord
100
AcDbLayerTableRecord
  2
DETAYLANDıRMA
 70
     0
 62
   190
  6
Continuous
370
    -3
390
F
  0
LAYER
  5
7E
330
2
100
AcDbSymbolTableRecord
100
AcDbLayerTableRecord
  2
TOLERANS
 70
     0
 62
   230
  6
Continuous
370
    -3
390
F
  0
LAYER
  5
7F
330
2
100
AcDbSymbolTableRecord
100
AcDbLayerTableRecord
  2
MERKEZ_CIZGILERI
 70
     0
 62
    30
  6
Continuous
370
    -3
390
F
  0
LAYER
  5
80
330
2
100
AcDbSymbolTableRecord
100
AcDbLayerTableRecord
  2
KESIT-DETAY_CIZGILERI
 70
     0
 62
     7
  6
Continuous
370
    -3
390
F
  0
LAYER
  5
81
330
2
100
AcDbSymbolTableRecord
100
AcDbLayerTableRecord
  2
\U+041E\U+0421\U+0415\U+0412\U+042B\U+0415
 70
     0
 62
     7
  6
Continuous
370
    -3
390
F
  0
LAYER
  5
82
330
2
100
AcDbSymbolTableRecord
100
AcDbLayerTableRecord
  2
\U+0412\U+041E\U+0414\U+042F\U+041D\U+042B\U+0415_\U+0417\U+041D\U+0410\U+041A\U+0418
 70
     0
 62
    11
  6
Continuous
370
    -3
390
F
  0
ENDTAB
  0
TABLE
  2
STYLE
  5
3
330
0
100
AcDbSymbolTable
 70
     1
  0
STYLE
  5
11
330
3
100
AcDbSymbolTableRecord
100
AcDbTextStyleTableRecord
  2
Standard
 70
     0
 40
0.0
 41
1.0
 50
0.0
 71
     0
 42
3.5
  3
txt
  4

  0
ENDTAB
  0
TABLE
  2
VIEW
  5
6
330
0
100
AcDbSymbolTable
 70
     0
  0
ENDTAB
  0
TABLE
  2
UCS
  5
7
330
0
100
AcDbSymbolTable
 70
     0
  0
ENDTAB
  0
TABLE
  2
APPID
  5
9
330
0
100
AcDbSymbolTable
 70
     1
  0
APPID
  5
12
330
9
100
AcDbSymbolTableRecord
100
AcDbRegAppTableRecord
  2
ACAD
 70
     0
  0
ENDTAB
  0
TABLE
  2
DIMSTYLE
  5
A
330
0
100
AcDbSymbolTable
 70
     1
100
AcDbDimStyleTable
  0
DIMSTYLE
105
27
330
A
100
AcDbSymbolTableRecord
100
AcDbDimStyleTableRecord
  2
ISO-25
 70
     0
 41
2.5
 42
0.625
 43
3.75
 44
1.25
 73
     0
 74
     0
 77
     1
 78
     8
140
2.5
141
2.5
143
0.0393700787
147
0.625
171
     3
172
     1
178
     0
271
     2
272
     2
274
     3
278
    44
283
     0
284
     8
340
11
  0
ENDTAB
  0
TABLE
  2
BLOCK_RECORD
  5
1
330
0
100
AcDbSymbolTable
 70
     2
  0
BLOCK_RECORD
  5
1F
330
1
100
AcDbSymbolTableRecord
100
AcDbBlockTableRecord
  2
*Model_Space
340
22
  0
BLOCK_RECORD
  5
1B
330
1
100
AcDbSymbolTableRecord
100
AcDbBlockTableRecord
  2
*Paper_Space
340
1E
  0
BLOCK_RECORD
  5
23
330
1
100
AcDbSymbolTableRecord
100
AcDbBlockTableRecord
  2
*Paper_Space0
340
26
  0
BLOCK_RECORD
  5
88
330
1
100
AcDbSymbolTableRecord
100
AcDbBlockTableRecord
  2
SW_CENTERMARKSYMBOL_0
340
0
102
{BLKREFS
331
93
102
}
  0
ENDTAB
  0
ENDSEC
  0
SECTION
  2
BLOCKS
  0
BLOCK
  5
20
330
1F
100
AcDbEntity
  8
0
100
AcDbBlockBegin
  2
*Model_Space
 70
     0
 10
0.0
 20
0.0
 30
0.0
  3
*Model_Space
  1

  0
ENDBLK
  5
21
330
1F
100
AcDbEntity
  8
0
100
AcDbBlockEnd
  0
BLOCK
  5
1C
330
1B
100
AcDbEntity
 67
     1
  8
0
100
AcDbBlockBegin
  2
*Paper_Space
 70
     0
 10
0.0
 20
0.0
 30
0.0
  3
*Paper_Space
  1

  0
ENDBLK
  5
1D
330
1B
100
AcDbEntity
 67
     1
  8
0
100
AcDbBlockEnd
  0
BLOCK
  5
24
330
23
100
AcDbEntity
  8
0
100
AcDbBlockBegin
  2
*Paper_Space0
 70
     0
 10
0.0
 20
0.0
 30
0.0
  3
*Paper_Space0
  1

  0
ENDBLK
  5
25
330
23
100
AcDbEntity
  8
0
100
AcDbBlockEnd
  0
BLOCK
  5
89
330
88
100
AcDbEntity
  8
0
100
AcDbBlockBegin
  2
SW_CENTERMARKSYMBOL_0
 70
     0
 10
0.0
 20
0.0
 30
0.0
  3
SW_CENTERMARKSYMBOL_0
  1

  0
LINE
  5
8B
330
88
100
AcDbEntity
  8
FORMAT
 62
     0
100
AcDbLine
 10
0.0
 20
0.0
 30
0.0
 11
0.0
 21
2.5
 31
0.0
  0
LINE
  5
8C
330
88
100
AcDbEntity
  8
FORMAT
 62
     0
100
AcDbLine
 10
0.0
 20
0.0
 30
0.0
 11
-2.5
 21
0.0
 31
0.0
  0
LINE
  5
8D
330
88
100
AcDbEntity
  8
FORMAT
 62
     0
100
AcDbLine
 10
0.0
 20
0.0
 30
0.0
 11
0.0
 21
-2.5
 31
0.0
  0
LINE
  5
8E
330
88
100
AcDbEntity
  8
FORMAT
 62
     0
100
AcDbLine
 10
0.0
 20
0.0
 30
0.0
 11
2.5
 21
0.0
 31
0.0
  0
LINE
  5
8F
330
88
100
AcDbEntity
  8
FORMAT
 62
     0
100
AcDbLine
 10
0.0
 20
5.0
 30
0.0
 11
0.0
 21
228.5
 31
0.0
  0
LINE
  5
90
330
88
100
AcDbEntity
  8
FORMAT
 62
     0
100
AcDbLine
 10
-5.0
 20
0.0
 30
0.0
 11
-228.5
 21
0.0
 31
0.0
  0
LINE
  5
91
330
88
100
AcDbEntity
  8
FORMAT
 62
     0
100
AcDbLine
 10
0.0
 20
-5.0
 30
0.0
 11
0.0
 21
-228.5
 31
0.0
  0
LINE
  5
92
330
88
100
AcDbEntity
  8
FORMAT
 62
     0
100
AcDbLine
 10
5.0
 20
0.0
 30
0.0
 11
228.5
 21
0.0
 31
0.0
  0
ENDBLK
  5
8A
330
88
100
AcDbEntity
  8
0
100
AcDbBlockEnd
  0
ENDSEC
  0
SECTION
  2
ENTITIES
  0
CIRCLE
  5
83
330
1F
100
AcDbEntity
  8
0
  6
Continuous
 62
     7
370
    25
100
AcDbCircle
 10
137.9424909615
 20
108.5958316346
 30
0.0
 40
161.95
  0
CIRCLE
  5
84
330
1F
100
AcDbEntity
  8
0
  6
Continuous
 62
     7
370
    25
100
AcDbCircle
 10
137.9424909615
 20
108.5958316346
 30
0.0
 40
152.4499999999999
  0
CIRCLE
  5
85
330
1F
100
AcDbEntity
  8
0
  6
Continuous
 62
     7
370
    25
100
AcDbCircle
 10
137.9424909615
 20
108.5958316346
 30
0.0
 40
162.0
  0
CIRCLE
  5
86
330
1F
100
AcDbEntity
  8
0
  6
Continuous
 62
     7
370
    25
100
AcDbCircle
 10
137.9424909615
 20
108.5958316346
 30
0.0
 40
226.0
  0
CIRCLE
  5
87
330
1F
100
AcDbEntity
  8
0
  6
Continuous
 62
     7
370
    25
100
AcDbCircle
 10
137.9424909615
 20
108.5958316346
 30
0.0
 40
128.9
  0
INSERT
  5
93
330
1F
100
AcDbEntity
  8
FORMAT
 62
     7
100
AcDbBlockReference
  2
SW_CENTERMARKSYMBOL_0
 10
137.9424909615
 20
108.5958316346
 30
0.0
  0
LINE
  5
94
330
1F
100
AcDbEntity
  8
0
  6
Continuous
 62
     7
370
    25
100
AcDbLine
 10
-1177.1135662203
 20
334.5958316346
 30
0.0
 11
-1261.1135662203
 21
266.0958316346
 31
0.0
  0
LINE
  5
95
330
1F
100
AcDbEntity
  8
0
  6
Continuous
 62
     7
370
    25
100
AcDbLine
 10
-1261.1135662203
 20
-48.9041683654
 30
0.0
 11
-1177.1135662203
 21
-117.4041683654
 31
0.0
  0
LINE
  5
96
330
1F
100
AcDbEntity
  8
0
  6
Continuous
 62
     7
370
    25
100
AcDbLine
 10
-989.1135662203
 20
334.5958316346
 30
0.0
 11
-1177.1135662203
 21
334.5958316346
 31
0.0
  0
LINE
  5
97
330
1F
100
AcDbEntity
  8
0
  6
Continuous
 62
     7
370
    25
100
AcDbLine
 10
-1177.1135662203
 20
-117.4041683654
 30
0.0
 11
-989.1135662203
 21
-117.4041683654
 31
0.0
  0
LINE
  5
98
330
1F
100
AcDbEntity
  8
0
  6
Continuous
 62
     7
370
    25
100
AcDbLine
 10
-988.1135662203
 20
270.5958316346
 30
0.0
 11
-989.1135662203
 21
270.5958316346
 31
0.0
  0
LINE
  5
99
330
1F
100
AcDbEntity
  8
0
  6
Continuous
 62
     7
370
    25
100
AcDbLine
 10
-989.1135662203
 20
-53.4041683654
 30
0.0
 11
-988.1135662203
 21
-53.4041683654
 31
0.0
  0
LINE
  5
9A
330
1F
100
AcDbEntity
  8
0
  6
Continuous
 62
     7
370
    25
100
AcDbLine
 10
-569.1135662203
 20
270.5458316346
 30
0.0
 11
-988.1135662203
 21
270.5458316346
 31
0.0
  0
LINE
  5
9B
330
1F
100
AcDbEntity
  8
0
  6
Continuous
 62
     7
370
    25
100
AcDbLine
 10
-988.1135662203
 20
-53.3541683654
 30
0.0
 11
-569.1135662203
 21
-53.3541683654
 31
0.0
  0
LINE
  5
9C
330
1F
100
AcDbEntity
  8
0
  6
Continuous
 62
     7
370
    25
100
AcDbLine
 10
-1261.1135662203
 20
266.0958316346
 30
0.0
 11
-1419.1135662203
 21
266.0958316346
 31
0.0
  0
LINE
  5
9D
330
1F
100
AcDbEntity
  8
0
  6
Continuous
 62
     7
370
    25
100
AcDbLine
 10
-1419.1135662203
 20
-48.9041683654
 30
0.0
 11
-1261.1135662203
 21
-48.9041683654
 31
0.0
  0
LINE
  5
9E
330
1F
100
AcDbEntity
  8
0
  6
Continuous
 62
     7
370
    25
100
AcDbLine
 10
-1261.1135662203
 20
266.0958316346
 30
0.0
 11
-1261.1135662203
 21
-48.9041683654
 31
0.0
  0
LINE
  5
9F
330
1F
100
AcDbEntity
  8
0
  6
Continuous
 62
     7
370
    25
100
AcDbLine
 10
-1177.1135662203
 20
334.5958316346
 30
0.0
 11
-1177.1135662203
 21
-117.4041683654
 31
0.0
  0
LINE
  5
A0
330
1F
100
AcDbEntity
  8
0
  6
Continuous
 62
     7
370
    25
100
AcDbLine
 10
-989.1135662203
 20
334.5958316346
 30
0.0
 11
-989.1135662203
 21
-117.4041683654
 31
0.0
  0
LINE
  5
A1
330
1F
100
AcDbEntity
  8
0
  6
Continuous
 62
     7
370
    25
100
AcDbLine
 10
-988.1135662203
 20
270.5958316346
 30
0.0
 11
-988.1135662203
 21
-53.4041683654
 31
0.0
  0
LINE
  5
A2
330
1F
100
AcDbEntity
  8
0
  6
Continuous
 62
     7
370
    25
100
AcDbLine
 10
-569.1135662203
 20
270.5458316346
 30
0.0
 11
-569.1135662203
 21
-53.3541683654
 31
0.0
  0
LINE
  5
A3
330
1F
100
AcDbEntity
  8
0
  6
Continuous
 62
     7
370
    25
100
AcDbLine
 10
-1419.1135662203
 20
266.0958316346
 30
0.0
 11
-1419.1135662203
 21
-48.9041683654
 31
0.0
  0
LINE
  5
A4
330
1F
100
AcDbEntity
  8
0
  6
Continuous
 62
     7
370
    25
100
AcDbLine
 10
1489.1351113235
 20
-117.4041683654
 30
0.0
 11
1573.1351113235
 21
-48.9041683654
 31
0.0
  0
LINE
  5
A5
330
1F
100
AcDbEntity
  8
0
  6
Continuous
 62
     7
370
    25
100
AcDbLine
 10
1573.1351113235
 20
266.0958316346
 30
0.0
 11
1489.1351113235
 21
334.5958316346
 31
0.0
  0
LINE
  5
A6
330
1F
100
AcDbEntity
  8
0
  6
Continuous
 62
     7
370
    25
100
AcDbLine
 10
1301.1351113235
 20
-117.4041683654
 30
0.0
 11
1489.1351113235
 21
-117.4041683654
 31
0.0
  0
LINE
  5
A7
330
1F
100
AcDbEntity
  8
0
  6
Continuous
 62
     7
370
    25
100
AcDbLine
 10
1489.1351113235
 20
334.5958316346
 30
0.0
 11
1301.1351113235
 21
334.5958316346
 31
0.0
  0
LINE
  5
A8
330
1F
100
AcDbEntity
  8
0
  6
Continuous
 62
     7
370
    25
100
AcDbLine
 10
1300.1351113235
 20
-53.4041683654
 30
0.0
 11
1301.1351113235
 21
-53.4041683654
 31
0.0
  0
LINE
  5
A9
330
1F
100
AcDbEntity
  8
0
  6
Continuous
 62
     7
370
    25
100
AcDbLine
 10
1301.1351113235
 20
270.5958316346
 30
0.0
 11
1300.1351113235
 21
270.5958316346
 31
0.0
  0
LINE
  5
AA
330
1F
100
AcDbEntity
  8
0
  6
Continuous
 62
     7
370
    25
100
AcDbLine
 10
881.1351113235
 20
-53.3541683654
 30
0.0
 11
1300.1351113235
 21
-53.3541683654
 31
0.0
  0
LINE
  5
AB
330
1F
100
AcDbEntity
  8
0
  6
Continuous
 62
     7
370
    25
100
AcDbLine
 10
1300.1351113235
 20
270.5458316346
 30
0.0
 11
881.1351113235
 21
270.5458316346
 31
0.0
  0
LINE
  5
AC
330
1F
100
AcDbEntity
  8
0
  6
Continuous
 62
     7
370
    25
100
AcDbLine
 10
1573.1351113235
 20
-48.9041683654
 30
0.0
 11
1731.1351113235
 21
-48.9041683654
 31
0.0
  0
LINE
  5
AD
330
1F
100
AcDbEntity
  8
0
  6
Continuous
 62
     7
370
    25
100
AcDbLine
 10
1731.1351113235
 20
266.0958316346
 30
0.0
 11
1573.1351113235
 21
266.0958316346
 31
0.0
  0
LINE
  5
AE
330
1F
100
AcDbEntity
  8
0
  6
Continuous
 62
     7
370
    25
100
AcDbLine
 10
1573.1351113235
 20
108.5958316346
 30
0.0
 11
1573.1351113235
 21
266.0958316346
 31
0.0
  0
LINE
  5
AF
330
1F
100
AcDbEntity
  8
0
  6
Continuous
 62
     7
370
    25
100
AcDbLine
 10
1573.1351113235
 20
-48.9041683654
 30
0.0
 11
1573.1351113235
 21
108.5958316346
 31
0.0
  0
LINE
  5
B0
330
1F
100
AcDbEntity
  8
0
  6
Continuous
 62
     7
370
    25
100
AcDbLine
 10
1489.1351113235
 20
108.5958316346
 30
0.0
 11
1489.1351113235
 21
334.5958316346
 31
0.0
  0
LINE
  5
B1
330
1F
100
AcDbEntity
  8
0
  6
Continuous
 62
     7
370
    25
100
AcDbLine
 10
1489.1351113235
 20
-117.4041683654
 30
0.0
 11
1489.1351113235
 21
108.5958316346
 31
0.0
  0
LINE
  5
B2
330
1F
100
AcDbEntity
  8
0
  6
Continuous
 62
     7
370
    25
100
AcDbLine
 10
1301.1351113235
 20
108.5958316346
 30
0.0
 11
1301.1351113235
 21
334.5958316346
 31
0.0
  0
LINE
  5
B3
330
1F
100
AcDbEntity
  8
0
  6
Continuous
 62
     7
370
    25
100
AcDbLine
 10
1301.1351113235
 20
-117.4041683654
 30
0.0
 11
1301.1351113235
 21
108.5958316346
 31
0.0
  0
LINE
  5
B4
330
1F
100
AcDbEntity
  8
0
  6
Continuous
 62
     7
370
    25
100
AcDbLine
 10
1300.1351113235
 20
108.5958316346
 30
0.0
 11
1300.1351113235
 21
270.5958316346
 31
0.0
  0
LINE
  5
B5
330
1F
100
AcDbEntity
  8
0
  6
Continuous
 62
     7
370
    25
100
AcDbLine
 10
1300.1351113235
 20
-53.4041683654
 30
0.0
 11
1300.1351113235
 21
108.5958316346
 31
0.0
  0
LINE
  5
B6
330
1F
100
AcDbEntity
  8
0
  6
Continuous
 62
     7
370
    25
100
AcDbLine
 10
881.1351113235
 20
108.5958316346
 30
0.0
 11
881.1351113235
 21
270.5458316346
 31
0.0
  0
LINE
  5
B7
330
1F
100
AcDbEntity
  8
0
  6
Continuous
 62
     7
370
    25
100
AcDbLine
 10
881.1351113235
 20
-53.3541683654
 30
0.0
 11
881.1351113235
 21
108.5958316346
 31
0.0
  0
LINE
  5
B8
330
1F
100
AcDbEntity
  8
0
  6
Continuous
 62
     7
370
    25
100
AcDbLine
 10
1731.1351113235
 20
108.5958316346
 30
0.0
 11
1731.1351113235
 21
266.0958316346
 31
0.0
  0
LINE
  5
B9
330
1F
100
AcDbEntity
  8
0
  6
Continuous
 62
     7
370
    25
100
AcDbLine
 10
1731.1351113235
 20
-48.9041683654
 30
0.0
 11
1731.1351113235
 21
108.5958316346
 31
0.0
  0
LINE
  5
BA
330
1F
100
AcDbEntity
  8
0
  6
Continuous
 62
     7
370
    25
100
AcDbLine
 10
-88.0575090385
 20
-1246.145579365
 30
0.0
 11
-19.5575090385
 21
-1330.145579365
 31
0.0
  0
LINE
  5
BB
330
1F
100
AcDbEntity
  8
0
  6
Continuous
 62
     7
370
    25
100
AcDbLine
 10
295.4424909615
 20
-1330.145579365
 30
0.0
 11
363.9424909615
 21
-1246.145579365
 31
0.0
  0
LINE
  5
BC
330
1F
100
AcDbEntity
  8
0
  6
Continuous
 62
     7
370
    25
100
AcDbLine
 10
-88.0575090385
 20
-1058.145579365
 30
0.0
 11
-88.0575090385
 21
-1246.145579365
 31
0.0
  0
LINE
  5
BD
330
1F
100
AcDbEntity
  8
0
  6
Continuous
 62
     7
370
    25
100
AcDbLine
 10
363.9424909615
 20
-1246.145579365
 30
0.0
 11
363.9424909615
 21
-1058.145579365
 31
0.0
  0
LINE
  5
BE
330
1F
100
AcDbEntity
  8
0
  6
Continuous
 62
     7
370
    25
100
AcDbLine
 10
-24.0575090385
 20
-1057.145579365
 30
0.0
 11
-24.0575090385
 21
-1058.145579365
 31
0.0
  0
LINE
  5
BF
330
1F
100
AcDbEntity
  8
0
  6
Continuous
 62
     7
370
    25
100
AcDbLine
 10
299.9424909615
 20
-1058.145579365
 30
0.0
 11
299.9424909615
 21
-1057.145579365
 31
0.0
  0
LINE
  5
C0
330
1F
100
AcDbEntity
  8
0
  6
Continuous
 62
     7
370
    25
100
AcDbLine
 10
-24.0075090385
 20
-638.145579365
 30
0.0
 11
-24.0075090385
 21
-1057.145579365
 31
0.0
  0
LINE
  5
C1
330
1F
100
AcDbEntity
  8
0
  6
Continuous
 62
     7
370
    25
100
AcDbLine
 10
299.8924909615
 20
-1057.145579365
 30
0.0
 11
299.8924909615
 21
-638.145579365
 31
0.0
  0
LINE
  5
C2
330
1F
100
AcDbEntity
  8
0
  6
Continuous
 62
     7
370
    25
100
AcDbLine
 10
-19.5575090385
 20
-1330.145579365
 30
0.0
 11
-19.5575090385
 21
-1488.145579365
 31
0.0
  0
LINE
  5
C3
330
1F
100
AcDbEntity
  8
0
  6
Continuous
 62
     7
370
    25
100
AcDbLine
 10
295.4424909615
 20
-1488.145579365
 30
0.0
 11
295.4424909615
 21
-1330.145579365
 31
0.0
  0
LINE
  5
C4
330
1F
100
AcDbEntity
  8
0
  6
Continuous
 62
     7
370
    25
100
AcDbLine
 10
-19.5575090385
 20
-1330.145579365
 30
0.0
 11
295.4424909615
 21
-1330.145579365
 31
0.0
  0
LINE
  5
C5
330
1F
100
AcDbEntity
  8
0
  6
Continuous
 62
     7
370
    25
100
AcDbLine
 10
-88.0575090385
 20
-1246.145579365
 30
0.0
 11
363.9424909615
 21
-1246.145579365
 31
0.0
  0
LINE
  5
C6
330
1F
100
AcDbEntity
  8
0
  6
Continuous
 62
     7
370
    25
100
AcDbLine
 10
-88.0575090385
 20
-1058.145579365
 30
0.0
 11
363.9424909615
 21
-1058.145579365
 31
0.0
  0
LINE
  5
C7
330
1F
100
AcDbEntity
  8
0
  6
Continuous
 62
     7
370
    25
100
AcDbLine
 10
-24.0575090385
 20
-1057.145579365
 30
0.0
 11
299.9424909615
 21
-1057.145579365
 31
0.0
  0
LINE
  5
C8
330
1F
100
AcDbEntity
  8
0
  6
Continuous
 62
     7
370
    25
100
AcDbLine
 10
-24.0075090385
 20
-638.145579365
 30
0.0
 11
299.8924909615
 21
-638.145579365
 31
0.0
  0
LINE
  5
C9
330
1F
100
AcDbEntity
  8
0
  6
Continuous
 62
     7
370
    25
100
AcDbLine
 10
-19.5575090385
 20
-1488.145579365
 30
0.0
 11
295.4424909615
 21
-1488.145579365
 31
0.0
  0
LINE
  5
CA
330
1F
100
AcDbEntity
  8
0
  6
Continuous
 62
     7
370
    25
100
AcDbLine
 10
363.9424909615
 20
1426.0572882299
 30
0.0
 11
295.4424909615
 21
1510.0572882299
 31
0.0
  0
LINE
  5
CB
330
1F
100
AcDbEntity
  8
0
  6
Continuous
 62
     7
370
    25
100
AcDbLine
 10
-19.5575090385
 20
1510.0572882299
 30
0.0
 11
-88.0575090385
 21
1426.0572882299
 31
0.0
  0
LINE
  5
CC
330
1F
100
AcDbEntity
  8
0
  6
Continuous
 62
     7
370
    25
100
AcDbLine
 10
363.9424909615
 20
1238.0572882299
 30
0.0
 11
363.9424909615
 21
1426.0572882299
 31
0.0
  0
LINE
  5
CD
330
1F
100
AcDbEntity
  8
0
  6
Continuous
 62
     7
370
    25
100
AcDbLine
 10
-88.0575090385
 20
1426.0572882299
 30
0.0
 11
-88.0575090385
 21
1238.0572882299
 31
0.0
  0
LINE
  5
CE
330
1F
100
AcDbEntity
  8
0
  6
Continuous
 62
     7
370
    25
100
AcDbLine
 10
299.9424909615
 20
1237.0572882299
 30
0.0
 11
299.9424909615
 21
1238.0572882299
 31
0.0
  0
LINE
  5
CF
330
1F
100
AcDbEntity
  8
0
  6
Continuous
 62
     7
370
    25
100
AcDbLine
 10
-24.0575090385
 20
1238.0572882299
 30
0.0
 11
-24.0575090385
 21
1237.0572882299
 31
0.0
  0
LINE
  5
D0
330
1F
100
AcDbEntity
  8
0
  6
Continuous
 62
     7
370
    25
100
AcDbLine
 10
299.8924909615
 20
818.0572882299
 30
0.0
 11
299.8924909615
 21
1237.0572882299
 31
0.0
  0
LINE
  5
D1
330
1F
100
AcDbEntity
  8
0
  6
Continuous
 62
     7
370
    25
100
AcDbLine
 10
-24.0075090385
 20
1237.0572882299
 30
0.0
 11
-24.0075090385
 21
818.0572882299
 31
0.0
  0
LINE
  5
D2
330
1F
100
AcDbEntity
  8
0
  6
Continuous
 62
     7
370
    25
100
AcDbLine
 10
295.4424909615
 20
1510.0572882299
 30
0.0
 11
295.4424909615
 21
1668.0572882299
 31
0.0
  0
LINE
  5
D3
330
1F
100
AcDbEntity
  8
0
  6
Continuous
 62
     7
370
    25
100
AcDbLine
 10
-19.5575090385
 20
1668.0572882299
 30
0.0
 11
-19.5575090385
 21
1510.0572882299
 31
0.0
  0
LINE
  5
D4
330
1F
100
AcDbEntity
  8
0
  6
Continuous
 62
     7
370
    25
100
AcDbLine
 10
295.4424909615
 20
1510.0572882299
 30
0.0
 11
-19.5575090385
 21
1510.0572882299
 31
0.0
  0
LINE
  5
D5
330
1F
100
AcDbEntity
  8
0
  6
Continuous
 62
     7
370
    25
100
AcDbLine
 10
363.9424909615
 20
1426.0572882299
 30
0.0
 11
-88.0575090385
 21
1426.0572882299
 31
0.0
  0
LINE
  5
D6
330
1F
100
AcDbEntity
  8
0
  6
Continuous
 62
     7
370
    25
100
AcDbLine
 10
363.9424909615
 20
1238.0572882299
 30
0.0
 11
-88.0575090385
 21
1238.0572882299
 31
0.0
  0
LINE
  5
D7
330
1F
100
AcDbEntity
  8
0
  6
Continuous
 62
     7
370
    25
100
AcDbLine
 10
299.9424909615
 20
1237.0572882299
 30
0.0
 11
-24.0575090385
 21
1237.0572882299
 31
0.0
  0
LINE
  5
D8
330
1F
100
AcDbEntity
  8
0
  6
Continuous
 62
     7
370
    25
100
AcDbLine
 10
299.8924909615
 20
818.0572882299
 30
0.0
 11
-24.0075090385
 21
818.0572882299
 31
0.0
  0
LINE
  5
D9
330
1F
100
AcDbEntity
  8
0
  6
Continuous
 62
     7
370
    25
100
AcDbLine
 10
295.4424909615
 20
1668.0572882299
 30
0.0
 11
-19.5575090385
 21
1668.0572882299
 31
0.0
  0
LINE
  5
DA
330
1F
100
AcDbEntity
  8
0
  6
Continuous
 62
     7
370
    25
100
AcDbLine
 10
831.9300366846
 20
-879.6008208459
 30
0.0
 11
1128.2077780018
 21
-1050.6383202728
 31
0.0
  0
LINE
  5
DB
330
1F
100
AcDbEntity
  8
0
  6
Continuous
 62
     7
370
    25
100
AcDbLine
 10
1290.1446167522
 20
-770.1250937477
 30
0.0
 11
993.866875435
 21
-599.0875943208
 31
0.0
  0
LINE
  5
DC
330
1F
100
AcDbEntity
  8
0
  6
Continuous
 62
     7
370
    25
100
AcDbLine
 10
1096.8924873703
 20
-1106.5169539642
 30
0.0
 11
1229.8285622334
 21
-1183.2593164755
 31
0.0
  0
LINE
  5
DD
330
1F
100
AcDbEntity
  8
0
  6
Continuous
 62
     7
370
    25
100
AcDbLine
 10
1455.8101958091
 20
-791.8052306794
 30
0.0
 11
1322.8741209461
 21
-715.0628681681
 31
0.0
  0
LINE
  5
DE
330
1F
100
AcDbEntity
  8
0
  6
Continuous
 62
     7
370
    25
100
AcDbLine
 10
1128.1827800335
 20
-1050.6816227159
 30
0.0
 11
1128.8898868147
 21
-1051.0898267718
 31
0.0
  0
LINE
  5
DF
330
1F
100
AcDbEntity
  8
0
  6
Continuous
 62
     7
370
    25
100
AcDbLine
 10
1290.8767215017
 20
-770.4899953605
 30
0.0
 11
1290.1696147205
 21
-770.0817913045
 31
0.0
  0
LINE
  5
E0
330
1F
100
AcDbEntity
  8
0
  6
Continuous
 62
     7
370
    25
100
AcDbLine
 10
1315.6785452843
 20
-1185.0576584441
 30
0.0
 11
1383.3018295543
 21
-1159.4773793912
 31
0.0
  0
LINE
  5
E1
330
1F
100
AcDbEntity
  8
0
  6
Continuous
 62
     7
370
    25
100
AcDbLine
 10
1511.9646555822
 20
-936.6026787275
 30
0.0
 11
1500.299489299
 21
-865.2501514599
 31
0.0
  0
LINE
  5
E2
330
1F
100
AcDbEntity
  8
0
  6
Continuous
 62
     7
370
    25
100
AcDbLine
 10
1348.468655539
 20
-1172.6539401163
 30
0.0
 11
1435.1956198733
 21
-1222.720350933
 31
0.0
  0
LINE
  5
E3
330
1F
100
AcDbEntity
  8
0
  6
Continuous
 62
     7
370
    25
100
AcDbLine
 10
1592.6828202635
 20
-949.9149592831
 30
0.0
 11
1505.9558559291
 21
-899.8485484663
 31
0.0
  0
LWPOLYLINE
  5
E4
330
1F
100
AcDbEntity
  8
0
  6
Continuous
 62
     7
370
    25
100
AcDbPolyline
 90
       18
 70
   128
 43
0.0
 10
1323.6921405902
 20
-844.2730601554
 10
1323.5681325737
 20
-838.1921977267
 10
1323.1963770981
 20
-832.2676817001
 10
1322.5776793028
 20
-826.5123432582
 10
1321.7133791496
 20
-820.9386471824
 10
1320.6053485202
 20
-815.5586648572
 10
1319.2559871621
 20
-810.3840481265
 10
1317.6682174915
 20
-805.4260040577
 10
1315.8454782641
 20
-800.6952706702
 10
1313.791717127
 20
-796.2020936793
 10
1311.5113820697
 20
-791.9562043056
 10
1309.00941179
 20
-787.9667982001
 10
1306.2912249985
 20
-784.2425155282
 10
1303.3627086824
 20
-780.7914222566
 10
1300.230205356
 20
-777.6209926851
 10
1296.900499324
 20
-774.738093258
 10
1293.3808019881
 20
-772.1489676937
 10
1290.1446167522
 20
-770.1250937477
  0
LWPOLYLINE
  5
E5
330
1F
100
AcDbEntity
  8
0
  6
Continuous
 62
     7
370
    25
100
AcDbPolyline
 90
       52
 70
   128
 43
0.0
 10
1128.2077780018
 20
-1050.6383202728
 10
1130.5905889443
 20
-1051.9352193331
 10
1134.5510551668
 20
-1053.7667988981
 10
1138.6731428301
 20
-1055.2878382826
 10
1142.9479244101
 20
-1056.4950432541
 10
1147.3661416818
 20
-1057.3857992753
 10
1151.9182257704
 20
-1057.9581771671
 10
1156.5943178756
 20
-1058.2109372865
 10
1161.3842906229
 20
-1058.1435322112
 10
1166.2777699981
 20
-1057.7561079258
 10
1171.2641578145
 20
-1057.0495035048
 10
1176.3326546665
 20
-1056.0252492962
 10
1181.4722833185
 20
-1054.6855636065
 10
1186.6719124793
 20
-1053.0333478965
 10
1191.92028091
 20
-1051.0721804977
 10
1197.2060218133
 20
-1048.8063088618
 10
1202.5176874514
 20
-1046.2406403622
 10
1207.8437739392
 20
-1043.3807316657
 10
1213.1727461596
 20
-1040.2327766977
 10
1218.4930627452
 20
-1036.8035932275
 10
1223.793201075
 20
-1033.100608103
 10
1229.0616822298
 20
-1029.1318411655
 10
1234.2870958524
 20
-1024.9058878803
 10
1239.4581248605
 20
-1020.4319007212
 10
1244.5635699568
 20
-1015.7195693482
 10
1249.592373884
 20
-1010.7790996218
 10
1254.5336453726
 20
-1005.6211914991
 10
1259.376682729
 20
-1000.2570158606
 10
1264.1109970126
 20
-994.6981903164
 10
1268.7263347529
 20
-988.9567540447
 10
1273.2127001561
 20
-983.0451417179
 10
1277.5603767537
 20
-976.9761565721
 10
1281.7599484464
 20
-970.7629426775
 10
1285.802319897
 20
-964.418956472
 10
1289.6787362291
 20
-957.9579376171
 10
1293.3808019881
 20
-951.3938792408
 10
1296.900499324
 20
-944.7409976318
 10
1300.230205356
 20
-938.0137014505
 10
1303.3627086824
 20
-931.2265605222
 10
1306.2912249985
 20
-924.3942742828
 10
1309.00941179
 20
-917.531639943
 10
1311.5113820697
 20
-910.6535204406
 10
1313.7917171271
 20
-903.7748122509
 10
1315.8454782641
 20
-896.910413124
 10
1317.6682174915
 20
-890.0751898199
 10
1319.2559871621
 20
-883.2839459102
 10
1320.6053485202
 20
-876.551389717
 10
1321.7133791496
 20
-869.8921024579
 10
1322.5776793028
 20
-863.3205066661
 10
1323.1963770981
 20
-856.8508349548
 10
1323.5681325737
 20
-850.4970991923
 10
1323.6921405902
 20
-844.2730601554
  0
LWPOLYLINE
  5
E6
330
1F
100
AcDbEntity
  8
0
  6
Continuous
 62
     7
370
    25
100
AcDbPolyline
 90
      136
 70
   128
 43
0.0
 10
1027.414399273
 20
-673.2355607285
 10
1027.2903912565
 20
-667.1546982998
 10
1026.9186357809
 20
-661.2301822733
 10
1026.2999379857
 20
-655.4748438313
 10
1025.4356378325
 20
-649.9011477555
 10
1024.327607203
 20
-644.5211654304
 10
1022.9782458449
 20
-639.3465486996
 10
1021.3904761744
 20
-634.3885046308
 10
1019.5677369469
 20
-629.6577712434
 10
1017.5139758099
 20
-625.1645942524
 10
1015.2336407525
 20
-620.9187048787
 10
1012.7316704729
 20
-616.9292987733
 10
1010.0134836813
 20
-613.2050161013
 10
1007.0849673652
 20
-609.7539228298
 10
1003.9524640389
 20
-606.5834932583
 10
1000.6227580068
 20
-603.7005938312
 10
997.1030606709
 20
-601.1114682668
 10
993.4009949119
 20
-598.8217240345
 10
989.5245785798
 20
-596.8363202104
 10
985.4822071292
 20
-595.1595567372
 10
981.2826354365
 20
-593.7950651111
 10
976.9349588389
 20
-592.7458005171
 10
972.4485934357
 20
-592.0140354287
 10
967.8332556954
 20
-591.6013546862
 10
963.0989414118
 20
-591.5086520641
 10
958.2559040555
 20
-591.7361283356
 10
953.3146325668
 20
-592.2832908379
 10
948.2858286396
 20
-593.1489545388
 10
943.1803835433
 20
-594.3312446034
 10
938.0093545352
 20
-595.8276004548
 10
932.7839409126
 20
-597.6347813194
 10
927.5154597579
 20
-599.7488732458
 10
922.215321428
 20
-602.1652975817
 10
916.8950048424
 20
-604.8788208901
 10
911.5660326221
 20
-607.8835662837
 10
906.2399461342
 20
-611.1730261531
 10
900.9282804961
 20
-614.7400762607
 10
895.6425395928
 20
-618.5769911702
 10
890.3941711621
 20
-622.6754609785
 10
885.1945420013
 20
-627.0266093124
 10
880.0549133493
 20
-631.6210125536
 10
874.9864164974
 20
-636.4487202478
 10
870.000028681
 20
-641.4992766551
 10
865.1065493057
 20
-646.7617433949
 10
860.3165765584
 20
-652.2247231362
 10
855.6404844533
 20
-657.8763842813
 10
851.0884003646
 20
-663.7044865906
 10
846.6701830929
 20
-669.6964076924
 10
842.3954015129
 20
-675.8391704198
 10
838.2733138497
 20
-682.1194709166
 10
834.3128476272
 20
-688.5237074503
 10
830.5225803333
 20
-695.0380098708
 10
826.910720843
 20
-701.6482696496
 10
823.4850916398
 20
-708.3401704359
 10
820.2531118735
 20
-715.0992190628
 10
817.2217812928
 20
-721.910776936
 10
814.3976650846
 20
-728.7600917379
 10
811.7868796558
 20
-735.632329378
 10
809.3950793863
 20
-742.5126061197
 10
807.2274443828
 20
-749.3860208157
 10
805.2886692601
 20
-756.2376871803
 10
803.5829529734
 20
-763.0527660299
 10
802.1139897243
 20
-769.8164974212
 10
800.8849609601
 20
-776.5142326182
 10
799.8985284835
 20
-783.131465818
 10
799.1568286875
 20
-789.6538655668
 10
798.6614679288
 20
-796.0673057992
 10
798.4135190484
 20
-802.3578964318
 10
798.4135190484
 20
-808.5120134461
 10
798.6614679288
 20
-814.5163283949
 10
799.1568286875
 20
-820.3578372692
 10
799.8985284835
 20
-826.0238886615
 10
800.8849609601
 20
-831.5022111661
 10
802.1139897243
 20
-836.7809399565
 10
803.5829529734
 20
-841.8486424814
 10
805.2886692601
 20
-846.6943432257
 10
807.2274443828
 20
-851.3075474807
 10
809.3950793863
 20
-855.6782640731
 10
811.7868796558
 20
-859.797027004
 10
814.3976650846
 20
-863.6549159502
 10
817.2217812928
 20
-867.2435755832
 10
820.2531118735
 20
-870.5552336654
 10
823.4850916398
 20
-873.5827178827
 10
826.910720843
 20
-876.3194713786
 10
830.5225803333
 20
-878.7595669543
 10
834.3128476272
 20
-880.8977199063
 10
838.2733138497
 20
-882.7292994713
 10
842.3954015129
 20
-884.2503388558
 10
846.6701830929
 20
-885.4575438272
 10
851.0884003646
 20
-886.3482998485
 10
855.6404844533
 20
-886.9206777403
 10
860.3165765584
 20
-887.1734378596
 10
865.1065493057
 20
-887.1060327844
 10
870.000028681
 20
-886.7186084989
 10
874.9864164974
 20
-886.012004078
 10
880.0549133494
 20
-884.9877498694
 10
885.1945420013
 20
-883.6480641796
 10
890.3941711621
 20
-881.9958484697
 10
895.6425395928
 20
-880.0346810708
 10
900.9282804961
 20
-877.7688094349
 10
906.2399461342
 20
-875.2031409354
 10
911.5660326221
 20
-872.3432322389
 10
916.8950048424
 20
-869.1952772708
 10
922.215321428
 20
-865.7660938006
 10
927.5154597579
 20
-862.0631086762
 10
932.7839409126
 20
-858.0943417386
 10
938.0093545352
 20
-853.8683884534
 10
943.1803835433
 20
-849.3944012944
 10
948.2858286396
 20
-844.6820699214
 10
953.3146325668
 20
-839.7416001949
 10
958.2559040555
 20
-834.5836920722
 10
963.0989414118
 20
-829.2195164338
 10
967.8332556954
 20
-823.6606908896
 10
972.4485934357
 20
-817.9192546178
 10
976.9349588389
 20
-812.0076422911
 10
981.2826354365
 20
-805.9386571452
 10
985.4822071292
 20
-799.7254432507
 10
989.5245785798
 20
-793.3814570452
 10
993.4009949119
 20
-786.9204381902
 10
997.103060671
 20
-780.3563798139
 10
1000.6227580068
 20
-773.703498205
 10
1003.9524640389
 20
-766.9762020236
 10
1007.0849673652
 20
-760.1890610953
 10
1010.0134836813
 20
-753.356774856
 10
1012.7316704729
 20
-746.4941405162
 10
1015.2336407525
 20
-739.6160210138
 10
1017.5139758099
 20
-732.737312824
 10
1019.5677369469
 20
-725.8729136971
 10
1021.3904761744
 20
-719.037690393
 10
1022.9782458449
 20
-712.2464464834
 10
1024.327607203
 20
-705.5138902902
 10
1025.4356378325
 20
-698.854603031
 10
1026.2999379857
 20
-692.2830072392
 10
1026.9186357809
 20
-685.8133355279
 10
1027.2903912565
 20
-679.4595997654
 10
1027.414399273
 20
-673.2355607285
  0
LWPOLYLINE
  5
E7
330
1F
100
AcDbEntity
  8
0
  6
Continuous
 62
     7
370
    25
100
AcDbPolyline
 90
      132
 70
   128
 43
0.0
 10
1020.6968848517
 20
-677.1134992597
 10
1020.5729149314
 20
-671.2168105635
 10
1020.2012903052
 20
-665.4768170637
 10
1019.5828657216
 20
-659.9067209291
 10
1018.7190635771
 20
-654.5193335595
 10
1017.6118706442
 20
-649.3270461184
 10
1016.2638335022
 20
-644.3418010333
 10
1014.6780526797
 20
-639.5750645277
 10
1012.8581755234
 20
-635.0378002482
 10
1010.8083878091
 20
-630.7404440481
 10
1008.5334041142
 20
-626.6928799845
 10
1006.0384569741
 20
-622.9044175842
 10
1003.3292848471
 20
-619.3837704324
 10
1000.4121189161
 20
-616.1390361301
 10
997.2936687561
 20
-613.1776776704
 10
993.9811069024
 20
-610.5065062725
 10
990.4820523534
 20
-608.1316657163
 10
986.8045530468
 20
-606.0586182112
 10
982.9570673487
 20
-604.2921318328
 10
978.9484445997
 20
-602.8362695564
 10
974.7879047603
 20
-601.694379912
 10
970.4850172057
 20
-600.8690892823
 10
966.0496787151
 20
-600.3622958621
 10
961.4920907091
 20
-600.1751652927
 10
956.8227357862
 20
-600.3081279802
 10
952.0523536124
 20
-600.7608781063
 10
947.1919162194
 20
-601.5323743312
 10
942.2526027692
 20
-602.6208421887
 10
937.2457738409
 20
-604.0237781681
 10
932.1829453014
 20
-605.7379554715
 10
927.0757618188
 20
-607.7594314362
 10
921.9359700785
 20
-610.0835566028
 10
916.7753917664
 20
-612.7049854088
 10
911.605896378
 20
-615.6176884841
 10
906.4393739182
 20
-618.8149665181
 10
901.2877075543
 20
-622.2894656691
 10
896.1627462841
 20
-626.0331944774
 10
891.0762776827
 20
-630.0375422471
 10
886.0400007908
 20
-634.2932988497
 10
881.0654992067
 20
-638.7906759089
 10
876.1642144435
 20
-643.5193293132
 10
871.3474196132
 20
-648.4683830083
 10
866.6261934983
 20
-653.6264540121
 10
862.01139507
 20
-658.9816785959
 10
857.5136385127
 20
-664.5217395716
 10
853.1432688106
 20
-670.2338946215
 10
848.9103379541
 20
-676.1050056059
 10
844.8245818197
 20
-682.1215687814
 10
840.8953977775
 20
-688.2697458598
 10
837.1318230768
 20
-694.5353958369
 10
833.5425140599
 20
-700.9041075169
 10
830.1357262526
 20
-707.361232659
 10
826.919295376
 20
-713.8919196682
 10
823.9006193242
 20
-720.4811477553
 10
821.0866411489
 20
-727.1137614845
 10
818.4838330901
 20
-733.7745056316
 10
816.0981816896
 20
-740.4480602717
 10
813.9351740222
 20
-747.1190760152
 10
811.9997850748
 20
-753.7722093122
 10
810.296466304
 20
-760.3921577429
 10
808.8291353975
 20
-766.9636952137
 10
807.6011672636
 20
-773.4717069779
 10
806.6153862681
 20
-779.9012243998
 10
805.8740597391
 20
-786.2374593834
 10
805.3788927513
 20
-792.4658383851
 10
805.1310242046
 20
-798.5720359337
 10
805.1310242046
 20
-804.5420075791
 10
805.3788927513
 20
-810.3620221953
 10
805.8740597391
 20
-816.018693562
 10
806.6153862681
 20
-821.4990111539
 10
807.6011672636
 20
-826.7903700649
 10
808.8291353975
 20
-831.8805999999
 10
810.296466304
 20
-836.757993267
 10
811.9997850748
 20
-841.4113317054
 10
813.9351740222
 20
-845.8299124875
 10
816.0981816896
 20
-850.003572736
 10
818.4838330901
 20
-853.9227128984
 10
821.0866411489
 20
-857.578318827
 10
823.9006193242
 20
-860.9619825108
 10
826.919295376
 20
-864.0659214149
 10
830.1357262526
 20
-866.8829963805
 10
833.5425140599
 20
-869.4067280449
 10
837.1318230768
 20
-871.6313117442
 10
840.8953977775
 20
-873.5516308648
 10
844.8245818197
 20
-875.1632686111
 10
848.9103379541
 20
-876.4625181647
 10
853.1432688106
 20
-877.4463912099
 10
857.5136385127
 20
-878.1126248072
 10
862.01139507
 20
-878.459686598
 10
866.6261934983
 20
-878.4867783291
 10
871.3474196132
 20
-878.1938376885
 10
876.1642144435
 20
-877.5815384492
 10
881.0654992067
 20
-876.6512889191
 10
886.0400007908
 20
-875.4052287018
 10
891.0762776827
 20
-873.8462237758
 10
896.1627462841
 20
-871.9778599024
 10
901.2877075543
 20
-869.8044343784
 10
906.4393739182
 20
-867.330946152
 10
911.605896378
 20
-864.5630843256
 10
916.7753917664
 20
-861.50721507
 10
921.9359700785
 20
-858.1703669823
 10
927.0757618188
 20
-854.5602149203
 10
932.1829453014
 20
-850.6850623492
 10
937.2457738409
 20
-846.5538222441
 10
942.2526027692
 20
-842.1759965898
 10
947.1919162194
 20
-837.5616545255
 10
952.0523536124
 20
-832.7214091858
 10
956.8227357862
 20
-827.6663932901
 10
961.4920907091
 20
-822.4082335369
 10
966.0496787151
 20
-816.9590238622
 10
970.4850172057
 20
-811.3312976229
 10
974.7879047603
 20
-805.5379987696
 10
978.9484445997
 20
-799.5924520754
 10
982.9570673487
 20
-793.5083324882
 10
986.8045530468
 20
-787.299633678
 10
990.4820523534
 20
-780.980635851
 10
993.9811069024
 20
-774.5658729047
 10
997.2936687561
 20
-768.0700989995
 10
1000.4121189161
 20
-761.5082546236
 10
1003.3292848471
 20
-754.8954322291
 10
1006.0384569741
 20
-748.2468415197
 10
1008.5334041142
 20
-741.5777744669
 10
1010.8083878091
 20
-734.9035701386
 10
1012.8581755234
 20
-728.2395794189
 10
1014.6780526797
 20
-721.6011296997
 10
1016.2638335022
 20
-715.0034896283
 10
1017.6118706442
 20
-708.4618339881
 10
1018.7190635771
 20
-701.9912087969
 10
1019.5828657216
 20
-695.6064966999
 10
1020.2012903052
 20
-689.3223827395
 10
1020.5729149314
 20
-683.1533205792
 10
1020.6968848517
 20
-677.1134992597
  0
LWPOLYLINE
  5
E8
330
1F
100
AcDbEntity
  8
0
  6
Continuous
 62
     7
370
    25
100
AcDbPolyline
 90
       21
 70
   128
 43
0.0
 10
1502.6255115694
 20
-895.2781569415
 10
1502.5007524165
 20
-888.05970022
 10
1502.1266697543
 20
-880.9965581137
 10
1501.5038476686
 20
-874.0997588806
 10
1500.6332586221
 20
-867.3800710539
 10
1499.5162619362
 20
-860.8479866286
 10
1498.1546016686
 20
-854.5137046789
 10
1496.5504038904
 20
-848.3871154344
 10
1494.7061733657
 20
-842.4777848368
 10
1492.6247896417
 20
-836.7949396043
 10
1490.309502552
 20
-831.3474528252
 10
1487.7639271426
 20
-826.1438301035
 10
1484.9920380272
 20
-821.1921962783
 10
1481.9981631817
 20
-816.5002827381
 10
1478.7869771862
 20
-812.0754153488
 10
1475.3634939265
 20
-807.9245030157
 10
1471.7330587653
 20
-804.0540268956
 10
1467.9013401962
 20
-800.4700302775
 10
1463.8743209929
 20
-797.1781091467
 10
1459.6582888677
 20
-794.1834034472
 10
1455.8101958091
 20
-791.8052306794
  0
LWPOLYLINE
  5
E9
330
1F
100
AcDbEntity
  8
0
  6
Continuous
 62
     7
370
    25
100
AcDbPolyline
 90
       61
 70
   128
 43
0.0
 10
1229.8285622334
 20
-1183.2593164755
 10
1232.6444384653
 20
-1184.8058235461
 10
1237.3035828239
 20
-1187.038066635
 10
1242.1274775729
 20
-1188.9588051108
 10
1247.1085907731
 20
-1190.5650399683
 10
1252.2391450075
 20
-1191.8542632626
 10
1257.5111295249
 20
-1192.8244620245
 10
1262.9163127472
 20
-1193.4741214037
 10
1268.4462551224
 20
-1193.8022270344
 10
1274.0923223019
 20
-1193.8082666184
 10
1279.8456986221
 20
-1193.4922307257
 10
1285.6974008689
 20
-1192.8546128089
 10
1291.6382923037
 20
-1191.8964084326
 10
1297.6590969299
 20
-1190.6191137192
 10
1303.7504139757
 20
-1189.0247230128
 10
1309.9027325726
 20
-1187.1157257651
 10
1316.1064466056
 20
-1184.8951026489
 10
1322.3518697115
 20
-1182.3663209034
 10
1328.6292504036
 20
-1179.5333289213
 10
1334.928787297
 20
-1176.4005500831
 10
1341.2406444127
 20
-1172.9728758512
 10
1347.5549665351
 20
-1169.2556581319
 10
1353.8618945998
 20
-1165.2547009195
 10
1360.1515810872
 20
-1160.9762512338
 10
1366.4142053985
 20
-1156.4269893659
 10
1372.6399891894
 20
-1151.6140184484
 10
1378.8192116373
 20
-1146.544853364
 10
1384.9422246201
 20
-1141.2274090121
 10
1390.9994677797
 20
-1135.669987951
 10
1396.9814834501
 20
-1129.8812674338
 10
1402.8789314239
 20
-1123.8702858607
 10
1408.682603536
 20
-1117.6464286656
 10
1414.3834380416
 20
-1111.2194136628
 10
1419.9725337641
 20
-1104.5992758734
 10
1425.4411639941
 20
-1097.7963518565
 10
1430.7807901147
 20
-1090.8212635705
 10
1435.9830749335
 20
-1083.6849017879
 10
1441.0398957003
 20
-1076.3984090902
 10
1445.9433567899
 20
-1068.973162471
 10
1450.6858020296
 20
-1061.4207555714
 10
1455.2598266544
 20
-1053.7529805783
 10
1459.6582888677
 20
-1045.9818098121
 10
1463.8743209929
 20
-1038.1193770334
 10
1467.9013401962
 20
-1030.1779584977
 10
1471.7330587654
 20
-1022.1699537874
 10
1475.3634939265
 20
-1014.1078664511
 10
1478.7869771862
 20
-1006.0042844813
 10
1481.9981631817
 20
-997.8718606592
 10
1484.9920380272
 20
-989.7232927993
 10
1487.7639271426
 20
-981.571303923
 10
1490.309502552
 20
-973.4286223931
 10
1492.6247896417
 20
-965.3079620404
 10
1494.7061733657
 20
-957.2220023119
 10
1496.5504038904
 20
-949.183368474
 10
1498.1546016686
 20
-941.2046118992
 10
1499.5162619362
 20
-933.2981904686
 10
1500.6332586221
 20
-925.4764491208
 10
1501.5038476686
 20
-917.7516005764
 10
1502.1266697543
 20
-910.1357062695
 10
1502.5007524165
 20
-902.6406575149
 10
1502.6255115694
 20
-895.2781569415
  0
LWPOLYLINE
  5
EA
330
1F
100
AcDbEntity
  8
0
  6
Continuous
 62
     7
370
    25
100
AcDbPolyline
 90
       41
 70
   128
 43
0.0
 10
1369.6894367064
 20
-818.5357944302
 10
1369.5646775534
 20
-811.3173377087
 10
1369.1905948913
 20
-804.2541956024
 10
1368.5677728055
 20
-797.3573963693
 10
1367.697183759
 20
-790.6377085426
 10
1366.5801870731
 20
-784.1056241172
 10
1365.2185268056
 20
-777.7713421676
 10
1363.6143290273
 20
-771.6447529231
 10
1361.7700985026
 20
-765.7354223254
 10
1359.6887147786
 20
-760.052577093
 10
1357.373427689
 20
-754.6050903139
 10
1354.8278522795
 20
-749.4014675922
 10
1352.0559631641
 20
-744.449833767
 10
1349.0620883186
 20
-739.7579202268
 10
1345.8509023231
 20
-735.3330528375
 10
1342.4274190634
 20
-731.1821405044
 10
1338.7969839023
 20
-727.3116643842
 10
1334.9652653332
 20
-723.7276677661
 10
1330.9382461298
 20
-720.4357466353
 10
1326.7222140046
 20
-717.4410409359
 10
1322.3237517913
 20
-714.7482265452
 10
1317.7497271666
 20
-712.3615079734
 10
1313.0072819268
 20
-710.2846117982
 10
1308.1038208373
 20
-708.5207808463
 10
1303.0470000704
 20
-707.0727691305
 10
1297.8447152516
 20
-705.9428375492
 10
1292.505089131
 20
-705.1327503563
 10
1287.036458901
 20
-704.6437724069
 10
1281.4473631785
 20
-704.476667182
 10
1275.746528673
 20
-704.6316955966
 10
1269.9428565608
 20
-705.1086155922
 10
1264.0454085871
 20
-705.9066825148
 10
1258.0633929167
 20
-707.0246502777
 10
1252.006149757
 20
-708.4607733069
 10
1245.8831367742
 20
-710.2128092668
 10
1239.7039143263
 20
-712.2780225613
 10
1233.4781305355
 20
-714.6531886049
 10
1227.2155062241
 20
-717.3345988577
 10
1220.9258197367
 20
-720.3180666161
 10
1214.618891672
 20
-723.5989335492
 10
1212.0287636313
 20
-725.0297716219
  0
LWPOLYLINE
  5
EB
330
1F
100
AcDbEntity
  8
0
  6
Continuous
 62
     7
370
    25
100
AcDbPolyline
 90
       81
 70
   128
 43
0.0
 10
1050.0919248809
 20
-1005.542998147
 10
1050.1083644426
 20
-1006.6719714463
 10
1050.3578340445
 20
-1013.8141649571
 10
1050.8563837312
 20
-1020.7954983253
 10
1051.6032350765
 20
-1027.6050710273
 10
1052.5972219608
 20
-1034.2322507239
 10
1053.8367923913
 20
-1040.6666898606
 10
1055.3200109262
 20
-1046.8983418245
 10
1057.0445616957
 20
-1052.9174766308
 10
1059.0077520185
 20
-1058.714696115
 10
1061.206516606
 20
-1064.2809486071
 10
1063.6374223482
 20
-1069.6075430646
 10
1066.2966736744
 20
-1074.6861626425
 10
1069.1801184794
 20
-1079.5088776792
 10
1072.2832546064
 20
-1084.0681580777
 10
1075.6012368766
 20
-1088.3568850629
 10
1079.1288846546
 20
-1092.3683622966
 10
1082.8606899372
 20
-1096.0963263334
 10
1086.7908259534
 20
-1099.5349564
 10
1090.9131562624
 20
-1102.6788834836
 10
1095.2212443347
 20
-1105.5231987154
 10
1099.7083636022
 20
-1108.0634610348
 10
1104.3675079609
 20
-1110.2957041237
 10
1109.1914027098
 20
-1112.2164425994
 10
1114.17251591
 20
-1113.822677457
 10
1119.3030701445
 20
-1115.1119007513
 10
1124.5750546618
 20
-1116.0820995131
 10
1129.9802378841
 20
-1116.7317588924
 10
1135.5101802593
 20
-1117.059864523
 10
1141.1562474388
 20
-1117.0659041071
 10
1146.9096237591
 20
-1116.7498682144
 10
1152.7613260058
 20
-1116.1122502976
 10
1158.7022174406
 20
-1115.1540459213
 10
1164.7230220668
 20
-1113.8767512079
 10
1170.8143391126
 20
-1112.2823605014
 10
1176.9666577096
 20
-1110.3733632538
 10
1183.1703717425
 20
-1108.1527401376
 10
1189.4157948484
 20
-1105.6239583921
 10
1195.6931755405
 20
-1102.7909664099
 10
1201.9927124339
 20
-1099.6581875718
 10
1208.3045695496
 20
-1096.2305133398
 10
1214.6188916721
 20
-1092.5132956206
 10
1220.9258197367
 20
-1088.5123384082
 10
1227.2155062241
 20
-1084.2338887224
 10
1233.4781305355
 20
-1079.6846268546
 10
1239.7039143263
 20
-1074.8716559371
 10
1245.8831367742
 20
-1069.8024908526
 10
1252.006149757
 20
-1064.4850465008
 10
1258.0633929167
 20
-1058.9276254396
 10
1264.0454085871
 20
-1053.1389049225
 10
1269.9428565608
 20
-1047.1279233493
 10
1275.746528673
 20
-1040.9040661542
 10
1281.4473631785
 20
-1034.4770511515
 10
1287.036458901
 20
-1027.856913362
 10
1292.505089131
 20
-1021.0539893452
 10
1297.8447152516
 20
-1014.0789010592
 10
1303.0470000704
 20
-1006.9425392765
 10
1308.1038208373
 20
-999.6560465789
 10
1313.0072819268
 20
-992.2307999597
 10
1317.7497271666
 20
-984.6783930601
 10
1322.3237517913
 20
-977.010618067
 10
1326.7222140046
 20
-969.2394473007
 10
1330.9382461298
 20
-961.3770145221
 10
1334.9652653332
 20
-953.4355959864
 10
1338.7969839023
 20
-945.427591276
 10
1342.4274190634
 20
-937.3655039398
 10
1345.8509023231
 20
-929.26192197
 10
1349.0620883186
 20
-921.1294981479
 10
1352.0559631641
 20
-912.980930288
 10
1354.8278522795
 20
-904.8289414116
 10
1357.373427689
 20
-896.6862598818
 10
1359.6887147786
 20
-888.5655995291
 10
1361.7700985026
 20
-880.4796398006
 10
1363.6143290273
 20
-872.4410059627
 10
1365.2185268056
 20
-864.4622493878
 10
1366.5801870731
 20
-856.5558279572
 10
1367.697183759
 20
-848.7340866095
 10
1368.5677728055
 20
-841.0092380651
 10
1369.1905948913
 20
-833.3933437581
 10
1369.5646775534
 20
-825.8982950035
 10
1369.6894367064
 20
-818.5357944302
  0
LWPOLYLINE
  5
EC
330
1F
100
AcDbEntity
  8
0
  6
Continuous
 62
     7
370
    25
100
AcDbPolyline
 90
       18
 70
   128
 43
0.0
 10
1324.4346027104
 20
-844.6608540085
 10
1324.3105564081
 20
-838.5781141909
 10
1323.9386861576
 20
-832.6517690455
 10
1323.3197973473
 20
-826.8946537162
 10
1322.4552303525
 20
-821.3192368327
 10
1321.3468576327
 20
-815.9375935065
 10
1319.9970796764
 20
-810.7613791787
 10
1318.4088198022
 20
-805.8018043769
 10
1316.5855178273
 20
-801.0696104358
 10
1314.5311226176
 20
-796.5750462337
 10
1312.2500835359
 20
-792.3278459957
 10
1309.7473408047
 20
-788.3372082119
 10
1307.0283148077
 20
-784.6117757151
 10
1304.0988943495
 20
-781.1596169625
 10
1300.9654239026
 20
-777.9882085612
 10
1297.6346898662
 20
-775.1044190757
 10
1294.1139058686
 20
-772.5144941517
 10
1290.8767215017
 20
-770.4899953605
  0
LWPOLYLINE
  5
ED
330
1F
100
AcDbEntity
  8
0
  6
Continuous
 62
     7
370
    25
100
AcDbPolyline
 90
       52
 70
   128
 43
0.0
 10
1128.8898868147
 20
-1051.0898267718
 10
1131.2734334197
 20
-1052.3871262332
 10
1135.2351223858
 20
-1054.2192712751
 10
1139.3584826911
 20
-1055.7407802611
 10
1143.6345840554
 20
-1056.9483579417
 10
1148.0541653954
 20
-1057.8393889726
 10
1152.6076548821
 20
-1058.4119435788
 10
1157.2851906711
 20
-1058.6647817346
 10
1162.0766422615
 20
-1058.5973558489
 10
1166.9716324362
 20
-1058.2098119511
 10
1171.9595597363
 20
-1057.502989375
 10
1177.0296214222
 20
-1056.478418941
 10
1182.170836869
 20
-1055.1383196404
 10
1187.3720713491
 20
-1053.4855938299
 10
1192.6220601468
 20
-1051.5238209455
 10
1197.9094329552
 20
-1049.2572497506
 10
1203.2227385024
 20
-1046.6907891336
 10
1208.5504693516
 20
-1043.8299974767
 10
1213.8810868243
 20
-1040.6810706176
 10
1219.2030459899
 20
-1037.2508284307
 10
1224.50482067
 20
-1033.5467000568
 10
1229.7749284012
 20
-1029.576707813
 10
1235.0019553037
 20
-1025.3494498185
 10
1240.1745808011
 20
-1020.8740813729
 10
1245.2816021386
 20
-1016.1602951276
 10
1250.3119586449
 20
-1011.218300094
 10
1255.2547556882
 20
-1006.0587995329
 10
1260.0992882707
 20
-1000.6929677736
 10
1264.8350642135
 20
-995.1324260127
 10
1269.4518268806
 20
-989.3892171457
 10
1273.939577392
 20
-983.4757796839
 10
1278.2885962794
 20
-977.4049208162
 10
1282.4894645363
 20
-971.189788671
 10
1286.5330840176
 20
-964.8438438405
 10
1290.4106971439
 20
-958.3808302283
 10
1294.1139058686
 20
-951.8147452825
 10
1297.6346898662
 20
-945.1598096812
 10
1300.9654239026
 20
-938.4304365328
 10
1304.0988943495
 20
-931.6412001611
 10
1307.0283148077
 20
-924.8068045404
 10
1309.7473408047
 20
-917.9420514497
 10
1312.2500835359
 20
-911.0618084155
 10
1314.5311226176
 20
-904.1809765122
 10
1316.5855178273
 20
-897.3144580895
 10
1318.4088198022
 20
-890.4771244972
 10
1319.9970796764
 20
-883.6837838775
 10
1321.3468576327
 20
-876.9491490933
 10
1322.4552303525
 20
-870.2878058641
 10
1323.3197973473
 20
-863.7141811758
 10
1323.9386861576
 20
-857.2425120357
 10
1324.3105564081
 20
-850.8868146382
 10
1324.4346027104
 20
-844.6608540085
  0
LWPOLYLINE
  5
EE
330
1F
100
AcDbEntity
  8
0
  6
Continuous
 62
     7
370
    25
100
AcDbPolyline
 90
       19
 70
   128
 43
0.0
 10
1323.7274959292
 20
-844.2526499526
 10
1323.6034496269
 20
-838.169910135
 10
1323.2315793765
 20
-832.2435649896
 10
1322.6126905662
 20
-826.4864496603
 10
1321.7481235713
 20
-820.9110327768
 10
1320.6397508515
 20
-815.5293894506
 10
1319.2899728953
 20
-810.3531751228
 10
1317.701713021
 20
-805.393600321
 10
1315.8784110461
 20
-800.6614063799
 10
1313.8240158365
 20
-796.1668421778
 10
1311.5429767547
 20
-791.9196419398
 10
1309.0402340236
 20
-787.929004156
 10
1306.3212080265
 20
-784.2035716592
 10
1303.3917875683
 20
-780.7514129066
 10
1300.2583171214
 20
-777.5800045053
 10
1296.927583085
 20
-774.6962150198
 10
1293.4067990874
 20
-772.1062900958
 10
1289.7035903627
 20
-769.8158389342
 10
1288.1321473394
 20
-768.9633198847
  0
LWPOLYLINE
  5
EF
330
1F
100
AcDbEntity
  8
0
  6
Continuous
 62
     7
370
    25
100
AcDbPolyline
 90
       53
 70
   128
 43
0.0
 10
1126.195308589
 20
-1049.4765464098
 10
1126.7748891479
 20
-1049.8401090979
 10
1130.5663266385
 20
-1051.9789221773
 10
1134.5280156046
 20
-1053.8110672192
 10
1138.6513759099
 20
-1055.3325762052
 10
1142.9274772742
 20
-1056.5401538858
 10
1147.3470586142
 20
-1057.4311849166
 10
1151.9005481009
 20
-1058.0037395228
 10
1156.5780838899
 20
-1058.2565776787
 10
1161.3695354803
 20
-1058.189151793
 10
1166.264525655
 20
-1057.8016078952
 10
1171.2524529552
 20
-1057.0947853191
 10
1176.322514641
 20
-1056.0702148851
 10
1181.4637300879
 20
-1054.7301155845
 10
1186.6649645679
 20
-1053.0773897739
 10
1191.9149533656
 20
-1051.1156168896
 10
1197.202326174
 20
-1048.8490456947
 10
1202.5156317212
 20
-1046.2825850777
 10
1207.8433625705
 20
-1043.4217934208
 10
1213.1739800431
 20
-1040.2728665617
 10
1218.4959392087
 20
-1036.8426243748
 10
1223.7977138888
 20
-1033.1384960009
 10
1229.06782162
 20
-1029.1685037571
 10
1234.2948485225
 20
-1024.9412457626
 10
1239.4674740199
 20
-1020.465877317
 10
1244.5744953574
 20
-1015.7520910717
 10
1249.6048518638
 20
-1010.8100960381
 10
1254.5476489071
 20
-1005.650595477
 10
1259.3921814895
 20
-1000.2847637177
 10
1264.1279574324
 20
-994.7242219568
 10
1268.7447200994
 20
-988.9810130898
 10
1273.2324706108
 20
-983.067575628
 10
1277.5814894982
 20
-976.9967167603
 10
1281.7823577551
 20
-970.7815846151
 10
1285.8259772365
 20
-964.4356397846
 10
1289.7035903627
 20
-957.9726261724
 10
1293.4067990874
 20
-951.4065412266
 10
1296.927583085
 20
-944.7516056252
 10
1300.2583171214
 20
-938.0222324769
 10
1303.3917875683
 20
-931.2329961052
 10
1306.3212080265
 20
-924.3986004845
 10
1309.0402340236
 20
-917.5338473938
 10
1311.5429767547
 20
-910.6536043596
 10
1313.8240158365
 20
-903.7727724563
 10
1315.8784110461
 20
-896.9062540335
 10
1317.701713021
 20
-890.0689204413
 10
1319.2899728953
 20
-883.2755798216
 10
1320.6397508515
 20
-876.5409450374
 10
1321.7481235713
 20
-869.8796018081
 10
1322.6126905662
 20
-863.3059771198
 10
1323.2315793765
 20
-856.8343079798
 10
1323.6034496269
 20
-850.4786105823
 10
1323.7274959292
 20
-844.2526499526
  0
ARC
  5
F0
330
1F
100
AcDbEntity
  8
0
  6
Continuous
 62
     7
370
    25
100
AcDbCircle
 10
1384.3176692714
 20
-957.016521001
 30
0.0
 40
129.2690143483911
100
AcDbArc
 50
359.7727317403
 51
9.0860423029
  0
LWPOLYLINE
  5
F1
330
1F
100
AcDbEntity
  8
0
  6
Continuous
 62
     7
370
    25
100
AcDbPolyline
 90
       38
 70
   128
 43
0.0
 10
1383.3018295543
 20
-1159.4773793912
 10
1387.7884155154
 20
-1157.6718850259
 10
1393.0195432518
 20
-1155.2965430032
 10
1398.2711926571
 20
-1152.6233657765
 10
1403.5316452481
 20
-1149.6583182494
 10
1408.789162898
 20
-1146.4080166025
 10
1414.0320140293
 20
-1142.8797135295
 10
1419.2484997908
 20
-1139.0812820543
 10
1424.4269801632
 20
-1135.0211979628
 10
1429.5558999318
 20
-1130.7085208902
 10
1434.623814471
 20
-1126.1528741054
 10
1439.619415282
 20
-1121.3644230377
 10
1444.5315552258
 20
-1116.3538525939
 10
1449.3492733975
 20
-1111.1323433158
 10
1454.061819584
 20
-1105.7115464325
 10
1458.6586782521
 20
-1100.1035578613
 10
1463.1295920126
 20
-1094.3208912177
 10
1467.4645845086
 20
-1088.3764498921
 10
1471.6539826769
 20
-1082.2834982575
 10
1475.6884383319
 20
-1076.0556320715
 10
1479.5589490256
 20
-1069.7067481387
 10
1483.2568781351
 20
-1063.2510133018
 10
1486.7739741346
 20
-1056.7028328296
 10
1490.1023890077
 20
-1050.0768182731
 10
1493.2346957592
 20
-1043.3877548618
 10
1496.1639049881
 20
-1036.6505685118
 10
1498.8834804832
 20
-1029.8802925201
 10
1501.387353808
 20
-1023.0920340198
 10
1503.6699378422
 20
-1016.30094027
 10
1505.7261392482
 20
-1009.5221648564
 10
1507.5513698367
 20
-1002.7708338775
 10
1509.1415568044
 20
-996.0620121926
 10
1510.4931518226
 20
-989.4106698064
 10
1511.6031389542
 20
-982.8316484643
 10
1512.4690413838
 20
-976.3396285357
 10
1513.0889269447
 20
-969.9490962555
 10
1513.4614124296
 20
-963.6743114001
 10
1513.5856666778
 20
-957.529275468
  0
LWPOLYLINE
  5
F2
330
1F
100
AcDbEntity
  8
0
  6
Continuous
 62
     7
370
    25
100
AcDbPolyline
 90
       18
 70
   128
 43
0.0
 10
1625.3085381053
 20
-1022.025516302
 10
1625.184283857
 20
-1016.0239412712
 10
1624.8117983721
 20
-1010.1792190025
 10
1624.1919128113
 20
-1004.5043913566
 10
1623.3260103817
 20
-999.012121093
 10
1622.2160232501
 20
-993.7146636143
 10
1620.8644282319
 20
-988.6238396194
 10
1619.2742412641
 20
-983.7510087274
 10
1617.4490106757
 20
-979.1070441294
 10
1615.3928092697
 20
-974.7023083263
 10
1613.1102252355
 20
-970.546630006
 10
1610.6063519106
 20
-966.6492821118
 10
1607.8867764156
 20
-963.0189611508
 10
1604.9575671867
 20
-959.6637677887
 10
1601.8252604352
 20
-956.5911887737
 10
1598.4968455621
 20
-953.8080802312
 10
1594.9797495626
 20
-951.3206523644
 10
1592.6828202635
 20
-949.9149592831
  0
LWPOLYLINE
  5
F3
330
1F
100
AcDbEntity
  8
0
  6
Continuous
 62
     7
370
    25
100
AcDbPolyline
 90
       51
 70
   128
 43
0.0
 10
1435.1956198733
 20
-1222.720350933
 10
1438.5108333175
 20
-1224.4794403185
 10
1442.4644193953
 20
-1226.2048567674
 10
1446.5774937016
 20
-1227.6181301702
 10
1450.8408783594
 20
-1228.7161069614
 10
1455.2450600905
 20
-1229.4963371256
 10
1459.7802114433
 20
-1229.957079664
 10
1464.4362127217
 20
-1230.0973064799
 10
1469.2026745663
 20
-1229.9167046725
 10
1474.0689611369
 20
-1229.415677235
 10
1479.0242138454
 20
-1228.5953421555
 10
1484.0573755853
 20
-1227.4575299224
 10
1489.1572154048
 20
-1226.0047794397
 10
1494.312353567
 20
-1224.2403323618
 10
1499.5112869429
 20
-1222.1681258599
 10
1504.7424146792
 20
-1219.7927838372
 10
1509.9940640846
 20
-1217.1196066105
 10
1515.2545166756
 20
-1214.1545590834
 10
1520.5120343255
 20
-1210.9042574365
 10
1525.7548854567
 20
-1207.3759543635
 10
1530.9713712183
 20
-1203.5775228883
 10
1536.1498515907
 20
-1199.5174387968
 10
1541.2787713592
 20
-1195.2047617242
 10
1546.3466858985
 20
-1190.6491149394
 10
1551.3422867094
 20
-1185.8606638717
 10
1556.2544266532
 20
-1180.8500934279
 10
1561.0721448249
 20
-1175.6285841498
 10
1565.7846910115
 20
-1170.2077872665
 10
1570.3815496796
 20
-1164.5997986953
 10
1574.85246344
 20
-1158.8171320517
 10
1579.1874559361
 20
-1152.8726907261
 10
1583.3768541044
 20
-1146.7797390915
 10
1587.4113097594
 20
-1140.5518729054
 10
1591.2818204531
 20
-1134.2029889727
 10
1594.9797495626
 20
-1127.7472541358
 10
1598.4968455621
 20
-1121.1990736636
 10
1601.8252604352
 20
-1114.5730591071
 10
1604.9575671867
 20
-1107.8839956958
 10
1607.8867764156
 20
-1101.1468093458
 10
1610.6063519106
 20
-1094.3765333541
 10
1613.1102252355
 20
-1087.5882748538
 10
1615.3928092697
 20
-1080.797181104
 10
1617.4490106757
 20
-1074.0184056904
 10
1619.2742412641
 20
-1067.2670747115
 10
1620.8644282319
 20
-1060.5582530266
 10
1622.2160232501
 20
-1053.9069106404
 10
1623.3260103817
 20
-1047.3278892983
 10
1624.1919128113
 20
-1040.8358693697
 10
1624.8117983721
 20
-1034.4453370895
 10
1625.184283857
 20
-1028.1705522341
 10
1625.3085381053
 20
-1022.025516302
  0
ENDSEC
  0
SECTION
  2
OBJECTS
  0
DICTIONARY
  5
C
330
0
100
AcDbDictionary
281
     1
  3
ACAD_GROUP
350
D
  3
ACAD_LAYOUT
350
1A
  3
ACAD_MLINESTYLE
350
17
  3
ACAD_PLOTSETTINGS
350
19
  3
ACAD_PLOTSTYLENAME
350
E
  3
ACAD_SCALELIST
350
47
  3
DWGPROPS
350
F4
  0
DICTIONARY
  5
D
102
{ACAD_REACTORS
330
C
102
}
330
C
100
AcDbDictionary
281
     1
  0
DICTIONARY
  5
1A
102
{ACAD_REACTORS
330
C
102
}
330
C
100
AcDbDictionary
281
     1
  3
Layout1
350
1E
  3
Layout2
350
26
  3
Model
350
22
  0
DICTIONARY
  5
17
102
{ACAD_REACTORS
330
C
102
}
330
C
100
AcDbDictionary
281
     1
  3
Standard
350
18
  0
DICTIONARY
  5
19
102
{ACAD_REACTORS
330
C
102
}
330
C
100
AcDbDictionary
281
     1
  0
ACDBDICTIONARYWDFLT
  5
E
102
{ACAD_REACTORS
330
C
102
}
330
C
100
AcDbDictionary
281
     1
  3
Normal
350
F
100
AcDbDictionaryWithDefault
340
F
  0
DICTIONARY
  5
47
102
{ACAD_REACTORS
330
C
102
}
330
C
100
AcDbDictionary
281
     1
  3
A0
350
48
  3
A1
350
49
  3
A2
350
4A
  3
A3
350
4B
  3
A4
350
4C
  3
A5
350
4D
  3
A6
350
4E
  3
A7
350
4F
  3
A8
350
50
  3
A9
350
51
  3
B0
350
52
  3
B1
350
53
  3
B2
350
54
  3
B3
350
55
  3
B4
350
56
  3
B5
350
57
  3
B6
350
58
  3
B7
350
59
  3
B8
350
5A
  3
B9
350
5B
  3
C0
350
5C
  3
C1
350
5D
  3
C2
350
5E
  3
C3
350
5F
  3
C4
350
60
  3
C5
350
61
  3
C6
350
62
  3
C7
350
63
  3
C8
350
64
  3
C9
350
65
  3
D0
350
66
  3
D1
350
67
  3
D2
350
68
  0
XRECORD
  5
F4
102
{ACAD_REACTORS
330
C
102
}
330
C
100
AcDbXrecord
280
     1
  1
DWGPROPS COOKIE
  2

  3

  4

  6

  7

  8
b.kav
  9

300
=
301
=
302
=
303
=
304
=
305
=
306
=
307
=
308
=
309
=
 40
0.0
 41
2459935.584760579
 42
2459935.584760764
  1

 90
        0
  0
LAYOUT
  5
1E
102
{ACAD_REACTORS
330
1A
102
}
330
1A
100
AcDbPlotSettings
  1

  2
none_device
  4

  6

 40
0.0
 41
0.0
 42
0.0
 43
0.0
 44
0.0
 45
0.0
 46
0.0
 47
0.0
 48
0.0
 49
0.0
140
0.0
141
0.0
142
1.0
143
1.0
 70
   688
 72
     1
 73
     0
 74
     5
  7

 75
    16
147
1.0
148
0.0
149
0.0
100
AcDbLayout
  1
Layout1
 70
     1
 71
     1
 10
0.0
 20
0.0
 11
420.0
 21
297.0
 12
0.0
 22
0.0
 32
0.0
 14
1.0000000000E+20
 24
1.0000000000E+20
 34
1.0000000000E+20
 15
-1.0000000000E+20
 25
-1.0000000000E+20
 35
-1.0000000000E+20
146
0.0
 13
0.0
 23
0.0
 33
0.0
 16
1.0
 26
0.0
 36
0.0
 17
0.0
 27
1.0
 37
0.0
 76
     0
330
1B
  0
LAYOUT
  5
26
102
{ACAD_REACTORS
330
1A
102
}
330
1A
100
AcDbPlotSettings
  1

  2
none_device
  4

  6

 40
0.0
 41
0.0
 42
0.0
 43
0.0
 44
0.0
 45
0.0
 46
0.0
 47
0.0
 48
0.0
 49
0.0
140
0.0
141
0.0
142
1.0
143
1.0
 70
   688
 72
     1
 73
     0
 74
     5
  7

 75
    16
147
1.0
148
0.0
149
0.0
100
AcDbLayout
  1
Layout2
 70
     1
 71
     2
 10
0.0
 20
0.0
 11
0.0
 21
0.0
 12
0.0
 22
0.0
 32
0.0
 14
0.0
 24
0.0
 34
0.0
 15
0.0
 25
0.0
 35
0.0
146
0.0
 13
0.0
 23
0.0
 33
0.0
 16
1.0
 26
0.0
 36
0.0
 17
0.0
 27
1.0
 37
0.0
 76
     0
330
23
  0
LAYOUT
  5
22
102
{ACAD_REACTORS
330
1A
102
}
330
1A
100
AcDbPlotSettings
  1

  2
none_device
  4
Letter_(8.50_x_11.00_Inches)
  6

 40
6.35
 41
6.35
 42
6.35000508
 43
6.35000508
 44
215.9
 45
279.4
 46
0.0
 47
0.0
 48
0.0
 49
0.0
140
0.0
141
0.0
142
1.0
143
1.0
 70
  1712
 72
     1
 73
     0
 74
     0
  7

 75
     0
147
1.0
148
0.0
149
0.0
100
AcDbLayout
  1
Model
 70
     1
 71
     0
 10
0.0
 20
0.0
 11
279.4
 21
215.9
 12
0.0
 22
0.0
 32
0.0
 14
0.0
 24
0.0
 34
0.0
 15
279.4
 25
215.9
 35
0.0
146
0.0
 13
0.0
 23
0.0
 33
0.0
 16
1.0
 26
0.0
 36
0.0
 17
0.0
 27
1.0
 37
0.0
 76
     0
330
1F
331
29
  0
MLINESTYLE
  5
18
102
{ACAD_REACTORS
330
17
102
}
330
17
100
AcDbMlineStyle
  2
Standard
 70
     0
  3

 62
   256
 51
90.0
 52
90.0
 71
     2
 49
0.5
 62
   256
  6
BYLAYER
 49
-0.5
 62
   256
  6
BYLAYER
  0
ACDBPLACEHOLDER
  5
F
102
{ACAD_REACTORS
330
E
102
}
330
E
  0
SCALE
  5
48
102
{ACAD_REACTORS
330
47
102
}
330
47
100
AcDbScale
 70
     0
300
1:1
140
1.0
141
1.0
290
     1
  0
SCALE
  5
49
102
{ACAD_REACTORS
330
47
102
}
330
47
100
AcDbScale
 70
     0
300
1:2
140
1.0
141
2.0
290
     0
  0
SCALE
  5
4A
102
{ACAD_REACTORS
330
47
102
}
330
47
100
AcDbScale
 70
     0
300
1:4
140
1.0
141
4.0
290
     0
  0
SCALE
  5
4B
102
{ACAD_REACTORS
330
47
102
}
330
47
100
AcDbScale
 70
     0
300
1:5
140
1.0
141
5.0
290
     0
  0
SCALE
  5
4C
102
{ACAD_REACTORS
330
47
102
}
330
47
100
AcDbScale
 70
     0
300
1:8
140
1.0
141
8.0
290
     0
  0
SCALE
  5
4D
102
{ACAD_REACTORS
330
47
102
}
330
47
100
AcDbScale
 70
     0
300
1:10
140
1.0
141
10.0
290
     0
  0
SCALE
  5
4E
102
{ACAD_REACTORS
330
47
102
}
330
47
100
AcDbScale
 70
     0
300
1:16
140
1.0
141
16.0
290
     0
  0
SCALE
  5
4F
102
{ACAD_REACTORS
330
47
102
}
330
47
100
AcDbScale
 70
     0
300
1:20
140
1.0
141
20.0
290
     0
  0
SCALE
  5
50
102
{ACAD_REACTORS
330
47
102
}
330
47
100
AcDbScale
 70
     0
300
1:30
140
1.0
141
30.0
290
     0
  0
SCALE
  5
51
102
{ACAD_REACTORS
330
47
102
}
330
47
100
AcDbScale
 70
     0
300
1:40
140
1.0
141
40.0
290
     0
  0
SCALE
  5
52
102
{ACAD_REACTORS
330
47
102
}
330
47
100
AcDbScale
 70
     0
300
1:50
140
1.0
141
50.0
290
     0
  0
SCALE
  5
53
102
{ACAD_REACTORS
330
47
102
}
330
47
100
AcDbScale
 70
     0
300
1:100
140
1.0
141
100.0
290
     0
  0
SCALE
  5
54
102
{ACAD_REACTORS
330
47
102
}
330
47
100
AcDbScale
 70
     0
300
2:1
140
2.0
141
1.0
290
     0
  0
SCALE
  5
55
102
{ACAD_REACTORS
330
47
102
}
330
47
100
AcDbScale
 70
     0
300
4:1
140
4.0
141
1.0
290
     0
  0
SCALE
  5
56
102
{ACAD_REACTORS
330
47
102
}
330
47
100
AcDbScale
 70
     0
300
8:1
140
8.0
141
1.0
290
     0
  0
SCALE
  5
57
102
{ACAD_REACTORS
330
47
102
}
330
47
100
AcDbScale
 70
     0
300
10:1
140
10.0
141
1.0
290
     0
  0
SCALE
  5
58
102
{ACAD_REACTORS
330
47
102
}
330
47
100
AcDbScale
 70
     0
300
100:1
140
100.0
141
1.0
290
     0
  0
SCALE
  5
59
102
{ACAD_REACTORS
330
47
102
}
330
47
100
AcDbScale
 70
     0
300
1/128" = 1'-0"
140
0.0078125
141
12.0
290
     0
  0
SCALE
  5
5A
102
{ACAD_REACTORS
330
47
102
}
330
47
100
AcDbScale
 70
     0
300
1/64" = 1'-0"
140
0.015625
141
12.0
290
     0
  0
SCALE
  5
5B
102
{ACAD_REACTORS
330
47
102
}
330
47
100
AcDbScale
 70
     0
300
1/32" = 1'-0"
140
0.03125
141
12.0
290
     0
  0
SCALE
  5
5C
102
{ACAD_REACTORS
330
47
102
}
330
47
100
AcDbScale
 70
     0
300
1/16" = 1'-0"
140
0.0625
141
12.0
290
     0
  0
SCALE
  5
5D
102
{ACAD_REACTORS
330
47
102
}
330
47
100
AcDbScale
 70
     0
300
3/32" = 1'-0"
140
0.09375
141
12.0
290
     0
  0
SCALE
  5
5E
102
{ACAD_REACTORS
330
47
102
}
330
47
100
AcDbScale
 70
     0
300
1/8" = 1'-0"
140
0.125
141
12.0
290
     0
  0
SCALE
  5
5F
102
{ACAD_REACTORS
330
47
102
}
330
47
100
AcDbScale
 70
     0
300
3/16" = 1'-0"
140
0.1875
141
12.0
290
     0
  0
SCALE
  5
60
102
{ACAD_REACTORS
330
47
102
}
330
47
100
AcDbScale
 70
     0
300
1/4" = 1'-0"
140
0.25
141
12.0
290
     0
  0
SCALE
  5
61
102
{ACAD_REACTORS
330
47
102
}
330
47
100
AcDbScale
 70
     0
300
3/8" = 1'-0"
140
0.375
141
12.0
290
     0
  0
SCALE
  5
62
102
{ACAD_REACTORS
330
47
102
}
330
47
100
AcDbScale
 70
     0
300
1/2" = 1'-0"
140
0.5
141
12.0
290
     0
  0
SCALE
  5
63
102
{ACAD_REACTORS
330
47
102
}
330
47
100
AcDbScale
 70
     0
300
3/4" = 1'-0"
140
0.75
141
12.0
290
     0
  0
SCALE
  5
64
102
{ACAD_REACTORS
330
47
102
}
330
47
100
AcDbScale
 70
     0
300
1" = 1'-0"
140
1.0
141
12.0
290
     0
  0
SCALE
  5
65
102
{ACAD_REACTORS
330
47
102
}
330
47
100
AcDbScale
 70
     0
300
1-1/2" = 1'-0"
140
1.5
141
12.0
290
     0
  0
SCALE
  5
66
102
{ACAD_REACTORS
330
47
102
}
330
47
100
AcDbScale
 70
     0
300
3" = 1'-0"
140
3.0
141
12.0
290
     0
  0
SCALE
  5
67
102
{ACAD_REACTORS
330
47
102
}
330
47
100
AcDbScale
 70
     0
300
6" = 1'-0"
140
6.0
141
12.0
290
     0
  0
SCALE
  5
68
102
{ACAD_REACTORS
330
47
102
}
330
47
100
AcDbScale
 70
     0
300
1'-0" = 1'-0"
140
12.0
141
12.0
290
     0
  0
ENDSEC
  0
EOF
